» » »

Carcass - Firm Hand Tabs

Artists:  A B C D E F G H I J K L M N O P Q R S T U V W X Y Z # 

Firm Hand Tabs

(ver. 2) Click to play this song!
Carcass
 Rating:
4/5 (4 votes)
    Firm Hand lessons Tabs too difficult? Try these video lessons and learn fast
                -----------------------------------------------------------------------------
-----------------------------------------------------------------------------

Tuning:Standard
try playing some of this on higher strings; this is my preference but 
depending on the tone you're looking for...


e|--------------------------------------------------------------------------|
B|--------------------------------------------------------------------------|
G|-14^--------14-12--11h12p11---------------------------14-12h14p12---------|
D|-----------------------------12----------13^~~--------------------14------|
A|---------------------------------14~--------------------------------------|
E|--------------------------------------------------------------------------|

e|-16^16~--------------17^-17^p15--17~-------17--15--14h15p14---------------|
B|--------------------------------------------------------------------------|
G|---------12^12~----------------------------------------------16~----------|
D|--------------------------------------------------------------------------|
A|--------------------------------------------------------------------------|
E|--------------------------------------------------------------------------|

e|-------------------------------------------12--11h12p11-------------------|
B|---------------------------------------------------------13-12-10---------|
G|-14p12--14~----12----14^-14^---12~~---16--------------------------12-11---|
D|------------------------------------------------------------------------12|
A|--------------------------------------------------------------------------|
E|--------------------------------------------------------------------------|

e|--------------------------------------------------------------------------|
B|--------------------------------------------------------------------------|
G|-------------------16----------------------------------------12-----------|
D|----------------------17-16-------17^p16----17^~----------14--------------|
A|---------14-----------------17-----------17------------15-------15--------|
E|-12--15-----12------------------------------------------------------------|

e|-15-12---------14---------------------------------------------------------|
B|-------13---------17-16-16h17p16------------------------------------------|
G|----------12---------------------17--16--14-------------------------------|
D|---------------------------------------------17-16-17~~\------------------|
A|--------------------------------------------------------------------------|
E|--------------------------------------------------------------------------|
            
Submit corrections

↑ Back to top | Tablatures and chords for acoustic guitar and electric guitar, ukulele, drums are parodies/interpretations of the original songs. You may use it for private study, scholarship, research or language learning purposes only