» » »

Cannibal Corpse - The Bloodlands Tabs

Artists:  A B C D E F G H I J K L M N O P Q R S T U V W X Y Z # 

The Bloodlands Tabs

(ver. 1) Click to play this song!
Cannibal Corpse
 Rating:
4/5 (4 votes)


 The Bloodlands lessons Tabs too difficult? Try these video lessons and learn fast
 
                Fig. 1
[gtr. 1]
|------------------------------------------------
|------------------------------------------------
|------------------------------------------------
|------------------------------------------------
|--777777777777...-------------------------------
|------------------------------------------------
   .  .  .  .

[gtr. 2]
[fade in...]
|------------------------------------------------
|-(8)----------10----------13-----------12-------
|------------------------------------------------
|-(6)----------8-----------11-----------10-------
|------------------------------------------------
|------------------------------------------------

|---------------------------------------------
|--9-----------12-----------11----------------
|---------------------------------------------
|--7-----------10-----------9-----------------
|---------------------------------------------
|---------------------------------------------

|---------------------------------------------
|--9-----------6------------5-----------------
|---------------------------------------------
|--7-----------4------------3-----------------
|---------------------------------------------
|---------------------------------------------

[both]
|---------------------------------------------
|---------------------------------------------
|---------------------------------------------
|--6-----------3------------------------------
|--4-----------1------------5-----------------
|---------------------------3-----------------


Fig. 2
|--------------------------------------------------
|--------------------------------------------------
|--------------------------------------------------
|--------------------------------------------------
|--7-----------4-----------6-----------4-----------
|-----6--4--3-----6--4--3-----6--4--3-----6--4--3--

|--------------------------------------------------
|--------------------------------------------------
|--------------------------------------------------
|--------------------------------------------------
|--7-----------4-----------6-----------3-----------
|-----6--4--3-----6--4--3-----6--4--3-----6--4--3--


Fig. 3
[gtr. 1]
|-----------------------------------
|-----------------------------------
|-----------------------------------
|-----------------------------------
|--------------------444444------3--
|--6--3--5--8--4--7--------666666---

|----------------------------------------------------------------
|----------------------------------------------------------------
|--------------------------------555555--------------------------
|--------777777------444444777777------444444333333--------------
|--------------666666------------------------------333333222222--
|--6--3----------------------------------------------------------

[gtr. 2]
|-----------------------------------
|-----------------------------------
|-----------------------------------
|--------4-----3--------------------
|-----------3-----2--1111114444443--
|--6--3-----------------------------

|----------------------------------------------------------------
|----------------------------------------------------------------
|----------------------------------------------------------------
|--------444444------111111444444333333--------------------------
|--------------333333------------------222222------666666555555--
|--6--3--------------------------------------444444--------------


Fig. 4
|--------------|-----------
|--------------|-----------
|--------------|-----------
|--------------|-------5---
|--------------|-------3---
|--7-6-4-6-4-3-|-7-6-4-----


Fig. 5
|----------------|-------------------|----------------|----------------|----------------|
|----------------|-------------------|----------------|----------------|----------------|
|----------------|-------------------|----------------|----------------|----------------|
|--11---11---11--|-------------------|---9----9----9--|---7----7----7--|---9----9----9--|
|--/9---/9---/9--|-------------------|--/7---/7---/7--|--/5---/5---/5--|--/7---/7---/7--|
|-----0----0-----|--8-0-7-0-4-0-4-5--|-----0----0-----|-----0----0-----|-----0----0-----|


Fig. 6
|--------------------------
|--------------------------
|--------------------------
|--6--------6--------------
|--4--3--3--4--3--3--3--3--
|-----3--3-----3--3--3--3--


Fig. 7
[gtr. 1]
|----------------------------------------------------------------
|----------------------------------------------------------------
|--10------4-------6-------8-------14------10------12------8-----
|----------------------------------------------------------------
|--8-------2-------4-------6-------12------8-------10------6-----
|----------------------------------------------------------------

[gtr. 2]
|------------------------------------|
|------------------------------------|
|------------------------------------|
|------------------------------------|
|----7-----10-----7---6-----6-----6--|
|--0-5-0-0-8--0-0-5-0-5-0-0-5-0-0-5--|


Fig. 8
Note - all trem. picked with pull-offs, spacing is just to show the
note numbers clearly...
[gtr. 1]
1 & 3
|-------------------------------------------------------------------------|
|-------------------------------------------------------------------------|
|-------------------------------------------------------------------------|
|-------------------------------------------------------------------------|
|--7p44444-7p44444-10p77777-10p77777-11p88888-11p88888-11p88888-11p88888--|
|-------------------------------------------------------------------------|

2 & 6
|-------------------------------------------------------------------|
|-------------------------------------------------------------------|
|-------------------------------------------------------------------|
|-------------------------------------------------------------------|
|--7p44444-7p44444--------------------------------------------------|
|------------------9p66666-9p66666-8p55555-8p55555-8p55555-8p55555--|

4
|-----------------------------------------------------------------------------------|
|-----------------------------------------------------------------------------------|
|-----------------------------------------------------------------------------------|
|-----------------------------------------------------------------------------------|
|--13p10~~~~-13p10~~~~-16p13~~~~-16p13~~~~-15p12~~~~-15p12~~~~-15p12~~~~-15p12~~~~--|
|-----------------------------------------------------------------------------------|

5
|---------------------------------------------------------------------|
|---------------------------------------------------------------------|
|---------------------------------------------------------------------|
|---------------------------------------------------------------------|
|--7p44444-7p44444-10p77777-10p77777-9p66666-9p66666-9p66666-9p66666--|
|---------------------------------------------------------------------|

[gtr. 2]
same as 1 but up 3 frets

[both]
|----------------------------------------------------------------
|----------------------------------------------------------------
|----------------------------------------------------------------
|--6---------------3---------------------------------------------
|--4---------------1--------------5-------------2----------------
|---------------------------------3-------------0----------------


Fig. 9
[gtr. 1]
|--------------------
|--------------------
|--------------------
|--------------------
|--5-----------------
|--3---333333333333--

[gtr. 2]
|--------------------
|--------------------
|--------------------
|--------------------
|--5-----------------
|--3---000000000000--


Fig. 10
[rhythm under solo]
|-----------------------------------------------------------
|-----------------------------------------------------------
|-----------------------------------------------------------
|--3-------3-------3-------5-6--6-----------6--------6\5-5--
|--1---5---1---5---1---5---3/4--4--0001113334--0001114\3-3--
|------3333----3333----3333---------------------------------


Fig. 11
[gtr. 1]
|-----------------------------------
|-----------------------------------
|-----------------------------------
|------------4----------------------
|--8-----------------7---------7-4--
|--6p0-1-2-3---4-5-6---4-6-7-6------

[gtr. 2]
|-----------------------------------
|-----------------------------------
|-----------------------------------
|-----------------------------------
|--8---------4-------7---------7----
|--6p0-1-2-3---4-5-6---4-6-7-6---4--

Fig. 12
[gtr. 1]
|----------------------------------------
|----------------------------------------
|-----------------555---------------777--
|--------------444---------------444-----
|--666555666333------666555666333--------
|----------------------------------------

|----------------------------------------
|----------------------------------------
|-----------------222---------------444--
|--444333------111---444333------111-----
|--------333000------------333000--------
|----------------------------------------
            
Submit corrections



        The Bloodlands lessons Hard to play? Try these video lessons and learn fast The Bloodlands lessons
        
↑ Back to top | Tablatures and chords for acoustic guitar and electric guitar, ukulele, drums are parodies/interpretations of the original songs. You may use it for private study, scholarship, research or language learning purposes only