» » »

Caloncho - Los Animales Chords

Artists:  A B C D E F G H I J K L M N O P Q R S T U V W X Y Z # 

Los Animales Chords

(ver. 1) Click to play this song!
Caloncho
 Rating:
4.3/5 (10 votes)

 Los Animales lessons Tabs too difficult? Try these video lessons and learn fast
 
                [Intro]
e|----------------------------------------|
B|----------------------------------------|
G|------0-----0-----0-----0---------------|
D|--0h2---0h2---0h2---0h2-----------------|
A|-------------------------------0-2-3----|
E|---------------------------3-3----------|

C Em Am G x2

C              Em          Am           G
Quien caballo fue, y no relinchó, pues no vivió
C              Em          Am           G
Quien un tigre fue, y no rugió, pues no vivió
C              Em          Am           G
Quien un gato fue, y no sonrío, pues no vivió
C              Em          Am           G
Quien humano fue, y no besó, pues no vivió

C Em Am G x3

e|----------------------------------------|
B|----------------------------------------|
G|----------------------------------------|
D|----------------------------------------|
A|------0-2-3-----------------------------|
E|--3-3-----------------------------------|

C              Em          Am           G
Quien caballo fue, solo relinchó, pues no vivió
C              Em          Am           G
Quien un tigre fue, solo rugió, pues no vivió
C              Em          Am           G
Quien un gato fue, solo sonrío, pues no vivió
C              Em          Am           G
Quien humano fue, solo besó, pues no vivió

e|----------------1----0-------------|
B|----------1-----0----1-------------|
G|------0-2-------0----0-------------|
D|--0h2-----------2----2-------------|
A|----------------3----3-------------|
E|-----------------------------------|

            
Submit corrections


        Los Animales lessons Hard to play? Try these video lessons and learn fast Los Animales lessons
        
↑ Back to top | Tablatures and chords for acoustic guitar and electric guitar, ukulele, drums are parodies/interpretations of the original songs. You may use it for private study, scholarship, research or language learning purposes only