» » »

Calibretto 13 - From Me To You Bass

Artists:  A B C D E F G H I J K L M N O P Q R S T U V W X Y Z # 

From Me To You Bass

(ver. 1) Click to play this song!
Calibretto 13
 Rating:
4/5 (4 votes)


 From Me To You lessons Tabs too difficult? Try these video lessons and learn fast
 
                Tuning: GDAE

|----------------|
 1e+a2e+a3e+a4e+a 

Introduction:
G|----------------|----------------|----------------|----------------|
D|----------------|----------------|----------------|----------------|
A|3---------------|0---------------|5-----------5---|------------2---|
E|----------------|----------------|----------------|3---3---3-------|
  1e+a2e+a3e+a4e+a 1e+a2e+a3e+a4e+a 1e+a2e+a3e+a4e+a 1e+a2e+a3e+a4e+a 

G|----------------|----------------|----------------|----------------|
D|----------------|----------------|----------------|----------------|
A|3-----3-----3---|0-----0-----0---|5-----5-----5---|------------2---|
E|----------------|----------------|----------------|3---3---3-------|
  1e+a2e+a3e+a4e+a 1e+a2e+a3e+a4e+a 1e+a2e+a3e+a4e+a 1e+a2e+a3e+a4e+a 

G|----------------|----------------|----------------|----------------|
D|----------------|----------------|----------------|----------------|
A|3-----3-----3---|0-----0-----0---|5-----5-----5---|------------2---|
E|----------------|----------------|----------------|3---3---3-------|
  1e+a2e+a3e+a4e+a 1e+a2e+a3e+a4e+a 1e+a2e+a3e+a4e+a 1e+a2e+a3e+a4e+a 

Verse 1:
G|----------------|----------------|----------------|----------------|
D|----------------|----------------|----------------|----------------|
A|3-----3-----3---|0-----0-----0---|5-----5-----5---|------------2---|
E|----------------|----------------|----------------|3---3---3-------|
  1e+a2e+a3e+a4e+a 1e+a2e+a3e+a4e+a 1e+a2e+a3e+a4e+a 1e+a2e+a3e+a4e+a 

G|----------------|----------------|----------------|----------------|
D|----------------|----------------|----------------|----------------|
A|3-----3-----3---|0-----0-----0---|5-----5/8---5---|------------2---| 
E|----------------|----------------|----------------|3---3---3-------|
  1e+a2e+a3e+a4e+a 1e+a2e+a3e+a4e+a 1e+a2e+a3e+a4e+a 1e+a2e+a3e+a4e+a 

G|----------------|----------------|----------------|----------------|
D|----------------|----------------|----------------|----------------|
A|3-----3-----3---|0-----0-----0---|5-----5-----5---|------------2---|
E|----------------|----------------|----------------|3---3---3-------|
  1e+a2e+a3e+a4e+a 1e+a2e+a3e+a4e+a 1e+a2e+a3e+a4e+a 1e+a2e+a3e+a4e+a 

G|----------------|----------------|----------------|----------------|
D|----------------|----------------|----------------|----------------|
A|3-----3-----3---|0-----0-----0---|5-----5-----5---|------------2---| 
E|----------------|----------------|----------------|3---3---3-------|
  1e+a2e+a3e+a4e+a 1e+a2e+a3e+a4e+a 1e+a2e+a3e+a4e+a 1e+a2e+a3e+a4e+a 

Interlude 1: 
G|----------------|----------------|----------------|----------------|
D|----------------|----------------|----------------|----------------|
A|3-----3-----3---|0-----0-----0---|5-----5-----5---|------------2---|
E|----------------|----------------|----------------|3---3---3-------|
  1e+a2e+a3e+a4e+a 1e+a2e+a3e+a4e+a 1e+a2e+a3e+a4e+a 1e+a2e+a3e+a4e+a 

G|----------------|----------------|----------------|----------------|
D|----------------|----------------|----------------|----------------|
A|3-----3-----3---|0-----0~----0---|5-----5-----5---|------------2---|
E|----------------|----------------|----------------|3---3---3-------|
  1e+a2e+a3e+a4e+a 1e+a2e+a3e+a4e+a 1e+a2e+a3e+a4e+a 1e+a2e+a3e+a4e+a 

Verse 2:
G|----------------|----------------|----------------|----------------|
D|----------------|----------------|----------------|----------------|
A|3-----3-----3---|0-----0-----0---|5-----5-----5---|------------2---|
E|----------------|----------------|----------------|3---3---3-------|
  1e+a2e+a3e+a4e+a 1e+a2e+a3e+a4e+a 1e+a2e+a3e+a4e+a 1e+a2e+a3e+a4e+a 

G|----------------|----------------|----------------|----------------|
D|----------------|----------------|----------------|----------------|
A|3-----3-----3---|0-----0-----0---|5-----5/8---5---|------------2---| 
E|----------------|----------------|----------------|3---3---3-------|
  1e+a2e+a3e+a4e+a 1e+a2e+a3e+a4e+a 1e+a2e+a3e+a4e+a 1e+a2e+a3e+a4e+a 

G|----------------|----------------|----------------|----------------|
D|----------------|----------------|----------------|----------------|
A|3-----3-----3---|0-----0-----0---|5-----5-----5---|------------2---|
E|----------------|----------------|----------------|3---3---3-------|
  1e+a2e+a3e+a4e+a 1e+a2e+a3e+a4e+a 1e+a2e+a3e+a4e+a 1e+a2e+a3e+a4e+a 

G|----------------|----------------|----------------|----------------|
D|----------------|----------------|----------------|----------------|
A|3-----3-----3---|0-----0-----0---|5-----5-----5---|------------2---| 
E|----------------|----------------|----------------|3---3---3-------|
  1e+a2e+a3e+a4e+a 1e+a2e+a3e+a4e+a 1e+a2e+a3e+a4e+a 1e+a2e+a3e+a4e+a 

Chorus 1:
G|----------------|----------------|----------------|----------------|
D|----------------|----------------|----------------|----------------|
A|0---------------|5-----5-----5---|3-----3-----3---|------------2---| 
E|----------------|----------------|----------------|3---3---3-------|
  1e+a2e+a3e+a4e+a 1e+a2e+a3e+a4e+a 1e+a2e+a3e+a4e+a 1e+a2e+a3e+a4e+a 

G|----------------|----------------|----------------|----------------|
D|----------------|----------------|----------------|----------------|
A|0---------------|5-----8-----5---|3-----3-----3---|------------2---| 
E|----------------|----------------|----------------|3---3---3-------|
  1e+a2e+a3e+a4e+a 1e+a2e+a3e+a4e+a 1e+a2e+a3e+a4e+a 1e+a2e+a3e+a4e+a 

G|----------------|----------------|----------------|----------------|
D|----------------|----------------|----------------|----------------|
A|0---------------|5-----5-----5---|3-----3-----3---|------------2---| 
E|----------------|----------------|----------------|3---3---3-------|
  1e+a2e+a3e+a4e+a 1e+a2e+a3e+a4e+a 1e+a2e+a3e+a4e+a 1e+a2e+a3e+a4e+a 

G|----------------|----------------|----------------|----------------|
D|----------------|----------------|----------------|----------------|
A|0---------------|5-----8-----5---|3-----------3---|------------2---| 
E|----------------|----------------|----------------|3---3---3-------|
  1e+a2e+a3e+a4e+a 1e+a2e+a3e+a4e+a 1e+a2e+a3e+a4e+a 1e+a2e+a3e+a4e+a 

Verse 3

G|----------------|----------------|----------------|----------------|
D|----------------|----------------|----------------|----------------|
A|3-----3-----3---|0-----0-----0---|5-----5-----5---|------------2---|
E|----------------|----------------|----------------|3---3---3-------|
  1e+a2e+a3e+a4e+a 1e+a2e+a3e+a4e+a 1e+a2e+a3e+a4e+a 1e+a2e+a3e+a4e+a 

G|----------------|----------------|----------------|----------------|
D|----------------|----------------|----------------|----------------|
A|3-----3-----3---|0-----0-----0---|5-----5-----5---|------------2---|
E|----------------|----------------|----------------|3---3---3-------|
  1e+a2e+a3e+a4e+a 1e+a2e+a3e+a4e+a 1e+a2e+a3e+a4e+a 1e+a2e+a3e+a4e+a 

G|----------------|----------------|----------------|----------------|
D|----------------|----------------|----------------|----------------|
A|3-----3-----3---|0-----0-----0---|5-----5-----5---|------------2---|
E|----------------|----------------|----------------|3---3---3-------|
  1e+a2e+a3e+a4e+a 1e+a2e+a3e+a4e+a 1e+a2e+a3e+a4e+a 1e+a2e+a3e+a4e+a 

G|----------------|----------------|----------------|----------------|
D|----------------|----------------|----------------|----------------|
A|3-----3-----3---|0-----0-----0---|5-----5/8---5---|------------2---| 
E|----------------|----------------|----------------|3---3---3-------|
  1e+a2e+a3e+a4e+a 1e+a2e+a3e+a4e+a 1e+a2e+a3e+a4e+a 1e+a2e+a3e+a4e+a 

Chorus 2:
G|----------------|----------------|----------------|----------------|
D|----------------|----------------|----------------|----------------|
A|0---------------|5-----5-----5---|3-----3-----3---|------------2---| 
E|----------------|----------------|----------------|3---3---3-------|
  1e+a2e+a3e+a4e+a 1e+a2e+a3e+a4e+a 1e+a2e+a3e+a4e+a 1e+a2e+a3e+a4e+a 

G|----------------|----------------|----------------|----------------|
D|----------------|----------------|----------------|----------------|
A|0---------------|5-----8-----5---|3-----6-----3---|------------2---| 
E|----------------|----------------|----------------|3---3---3-------|
  1e+a2e+a3e+a4e+a 1e+a2e+a3e+a4e+a 1e+a2e+a3e+a4e+a 1e+a2e+a3e+a4e+a 

G|----------------|----------------|----------------|----------------|
D|----------------|----------------|----------------|----------------|
A|0---------------|5-----5-----5---|3-----3-----3---|------------2---| 
E|----------------|----------------|----------------|3---3---3-------|
  1e+a2e+a3e+a4e+a 1e+a2e+a3e+a4e+a 1e+a2e+a3e+a4e+a 1e+a2e+a3e+a4e+a 

G|----------------|----------------|----------------|----------------|
D|----------------|----------------|----------------|----------------|
A|0---------------|5-----8-----5---|3-----------3---|------------2---| 
E|----------------|----------------|----------------|3---3---3-------|
  1e+a2e+a3e+a4e+a 1e+a2e+a3e+a4e+a 1e+a2e+a3e+a4e+a 1e+a2e+a3e+a4e+a 

Interlude 2:
G|----------------|----------------|----------------|----------------|
D|----------------|----------------|----------------|----------------|
A|3-----3-----3---|0-----0-----0---|5-----5-----5---|------------2---|
E|----------------|----------------|----------------|3---3---3-------|
  1e+a2e+a3e+a4e+a 1e+a2e+a3e+a4e+a 1e+a2e+a3e+a4e+a 1e+a2e+a3e+a4e+a 

G|------------0---|2-----5-----2---|----------------|0---------------|
D|----------------|----------------|3-----3-----3---|----3---2---0---|
A|3-----3---------|----------------|----------------|----------------|
E|----------------|----------------|----------------|----------------|
  1e+a2e+a3e+a4e+a 1e+a2e+a3e+a4e+a 1e+a2e+a3e+a4e+a 1e+a2e+a3e+a4e+a 

G|----------------|----------------|----------------|----------------|
D|----------------|----------------|----------------|----------------|
A|3-----3-----3---|0-----0-----0---|5-----5-----5---|------------2---|
E|----------------|----------------|----------------|3---3---3-------|
  1e+a2e+a3e+a4e+a 1e+a2e+a3e+a4e+a 1e+a2e+a3e+a4e+a 1e+a2e+a3e+a4e+a 

G|------------0---|2-----5-----2---|----------------|0-----------0---|
D|----------------|----------------|3-----3-----3---|----------------|
A|3-----3---------|----------------|----------------|----------------|
E|----------------|----------------|----------------|----------------|
  1e+a2e+a3e+a4e+a 1e+a2e+a3e+a4e+a 1e+a2e+a3e+a4e+a 1e+a2e+a3e+a4e+a 

Chorus 3:
G|----------------|----------------|----------------|----------------|
D|----------------|----------------|----------------|----------------|
A|0---------------|5-----5-----5---|3-----3-----3---|------------2---| 
E|----------------|----------------|----------------|3---3---3-------|
  1e+a2e+a3e+a4e+a 1e+a2e+a3e+a4e+a 1e+a2e+a3e+a4e+a 1e+a2e+a3e+a4e+a 

G|----------------|----------------|----------------|----------------|
D|----------------|----------------|----------------|----------------|
A|0---------------|5-----8-----5---|3-----6-----3---|------------2---| 
E|----------------|----------------|----------------|3---3---3-------|
  1e+a2e+a3e+a4e+a 1e+a2e+a3e+a4e+a 1e+a2e+a3e+a4e+a 1e+a2e+a3e+a4e+a 

G|----------------|----------------|----------------|----------------|
D|----------------|----------------|----------------|----------------|
A|0---------------|5-----5-----5---|3-----3-----3---|------------2---| 
E|----------------|----------------|----------------|3---3---3-------|
  1e+a2e+a3e+a4e+a 1e+a2e+a3e+a4e+a 1e+a2e+a3e+a4e+a 1e+a2e+a3e+a4e+a 

G|----------------|----------------|----------------|----------------|
D|----------------|----------------|----------------|----------------|
A|0---------------|5-----8-----5---|3-----6-----3---|------------2---| 
E|----------------|----------------|----------------|3---3---3-------|
  1e+a2e+a3e+a4e+a 1e+a2e+a3e+a4e+a 1e+a2e+a3e+a4e+a 1e+a2e+a3e+a4e+a 

Ending:
G|----------------|----------------|----------------|----------------|
D|----------------|----------------|----------------|----------------|
A|0---------------|5-----5-----8---|3-----3-----3---|------------2---| 
E|----------------|----------------|----------------|3---3---3-------|
  1e+a2e+a3e+a4e+a 1e+a2e+a3e+a4e+a 1e+a2e+a3e+a4e+a 1e+a2e+a3e+a4e+a 

G|----------------|----------------|----------------|----------------|
D|----------------|----------------|----------------|----------------|
A|0---------------|5-----8-----5---|3-----6-----3---|------------2---| 
E|----------------|----------------|----------------|3---3---3-------|
  1e+a2e+a3e+a4e+a 1e+a2e+a3e+a4e+a 1e+a2e+a3e+a4e+a 1e+a2e+a3e+a4e+a 

G|----------------|----------------|----------------|----------------|
D|----------------|----------------|----------------|----------------|
A|0---------------|5-----------5---|3-----------3---|------------2---| 
E|----------------|----------------|----------------|3---3---3-------|
  1e+a2e+a3e+a4e+a 1e+a2e+a3e+a4e+a 1e+a2e+a3e+a4e+a 1e+a2e+a3e+a4e+a 

G|----------------|----------------|----------------|----------------|
D|----------------|----------------|----------------|----------------|
A|0---------------|5-----------5---|3-----------3---|----------------| 
E|----------------|----------------|----------------|3---------------|
  1e+a2e+a3e+a4e+a 1e+a2e+a3e+a4e+a 1e+a2e+a3e+a4e+a 1e+a2e+a3e+a4e+a 
            
Submit corrections



        From Me To You lessons Hard to play? Try these video lessons and learn fast From Me To You lessons
        
↑ Back to top | Tablatures and chords for acoustic guitar and electric guitar, ukulele, drums are parodies/interpretations of the original songs. You may use it for private study, scholarship, research or language learning purposes only