» » »

Calibretto 13 - Crusin The Strip Bass

Artists:  A B C D E F G H I J K L M N O P Q R S T U V W X Y Z # 

Crusin The Strip Bass

(ver. 1) Click to play this song!
Calibretto 13
 Rating:
4/5 (4 votes)


 Crusin The Strip lessons Tabs too difficult? Try these video lessons and learn fast
 
                Tuning: GDAE

|----------------|
 1e+a2e+a3e+a4e+a 

Introduction:  
  G#A              G#A              G#A
G|----------------|----------------|----------------|
D|----------------|----------------|----------------|
A|----------------|----------------|----------------|
E|4-5~------------|4-5~------------|4-5-------------|
  1e+a2e+a3e+a4e+a 1e+a2e+a3e+a4e+a 1e+a2e+a3e+a4e+a 
  G#A              A                G#A
G|----------------|----------------|----------------|
D|----------------|----------------|----------------|
A|----------------|----------------|----------------|
E|4-5-5-5-5-5-5-5-|5-5-5-5-5-5-5-5-|4-5-------------|
  1e+a2e+a3e+a4e+a 1e+a2e+a3e+a4e+a 1e+a2e+a3e+a4e+a 
  G#A              A
G|----------------|----------------|
D|----------------|----------------|
A|----------------|----------------|
E|4-5-5-5-5-5-5-5-|5-5-5-5-5-5-5-5-|
  1e+a2e+a3e+a4e+a 1e+a2e+a3e+a4e+a 

Verse 1:
  D                A                D                A
G|----------------|----------------|----------------|----------------|
D|----------------|----------------|----------------|7-7-7-7-7-5-4---|
A|5-5-5-5-5-5-5-5-|----------------|5-5-5-5-5-5-5-5-|--------------7-|
E|----------------|5-5-5-5-5-5-5-5-|----------------|----------------|
  1e+a2e+a3e+a4e+a 1e+a2e+a3e+a4e+a 1e+a2e+a3e+a4e+a 1e+a2e+a3e+a4e+a 

  D                A                  D
G|----------------|----------------|  ------  ------  ----|----------------|
D|----------------|----------------|0h2-2-2-0h2-2-2-0h2-2-|----------------|
A|5-5-5-5-5-5-5-5-|----------------|  ------  ------  ----|----------------|
E|----------------|5-5-5-5-5-5-5-5-|  ------  ------  ----|----------------|
  1e+a2e+a3e+a4e+a 1e+a2e+a3e+a4e+a   1e+a2e  +a3e+a  4e+a|1e+a2e+a3e+a4e+a 

Chorus 1:
  A       D        A       E        A      D         A       E
G|----------------|----------------|----------------|----------------|
D|----------------|----------------|----------------|----------------|
A|--------5-5-5-5-|--------7-7-7-7-|--------5-5-5-5-|9-9-9-9-7-7-7-7-|
E|5-5-5-5---------|5-5-5-5---------|5-5-5-5---------|----------------|
  1e+a2e+a3e+a4e+a 1e+a2e+a3e+a4e+a 1e+a2e+a3e+a4e+a 1e+a2e+a3e+a4e+a

  A       D        A       E        A      D         A       E
G|----------------|----------------|----------------|----------------|
D|----------------|----------------|----------------|----------------|
A|--------5-5-5-5-|--------7-7-7-7-|--------5-5-5-5-|9-9-9-9-7-7-7-7-|
E|5-5-5-5---------|5-5-5-5---------|5-5-5-5---------|----------------|
  1e+a2e+a3e+a4e+a 1e+a2e+a3e+a4e+a 1e+a2e+a3e+a4e+a 1e+a2e+a3e+a4e+a 

  A       D        A       E        A      D         A       E
G|----------------|----------------|----------------|----------------|
D|----------------|----------------|----------------|----------------|
A|--------5-------|--------7-------|--------5-------|9-------7-------|
E|5---------------|5---------------|5---------------|----------------|

  A       D        A       E        A      D         A       E
G|----------------|----------------|----------------|----------------|
D|----------------|----------------|----------------|----------------|
A|--------5-5-5-5-|--------7-7-7-7-|--------5-5-5-5-|9-9-9-9-7-7-7-7-|
E|5-5-5-5---------|5-5-5-5---------|5-5-5-5---------|----------------|

Bridge:
  G#A              A                G#A              A
G|----------------|----------------|----------------|----------------|
D|----------------|----------------|----------------|----------------|
A|----------------|----------------|----------------|----------------|
E|4-5-5-5-5-5-5-5-|5-5-5-5-5-5-5-5-|4-5-5-5-5-5-5-5-|5-5-5-5-5-5-5-5-|
  G#A              A                G#A              C#
G|----------------|----------------|----------------|----------------|
D|----------------|----------------|----------------|----------------|
A|----------------|----------------|----------------|4-4-4-4-4-4-4-4-|
E|4-5-5-5-5-5-5-5-|5-5-5-5-5-5-5-5-|4-5-5-5-5-5-5-5-|----------------|
  G#A                               G#A              A
G|----------------|----------------|----------------|----------------|
D|----------------|----------------|----------------|----------------|
A|----------------|----------------|----------------|----------------|
E|4-5-------------|----------------|4-5-5-5-5-5-5-5-|5-5-5-5-5-5-5-5-|
  G#A                               G#A              A
G|----------------|----------------|----------------|----------------|
D|----------------|----------------|----------------|----------------|
A|----------------|----------------|----------------|----------------|
E|4-5-------------|----------------|4-5-5-5-5-5-5-5-|5-5-5-5-5-5-5-5-|

Verse 2:
  D                A                D                A
G|----------------|----------------|----------------|----------------|
D|----------------|----------------|----------------|7-7-7-7-7-5-4---|
A|5-5-5-5-5-5-5-5-|----------------|5-5-5-5-5-5-5-5-|--------------7-|
E|----------------|5-5-5-5-5-5-5-5-|----------------|----------------|
  1e+a2e+a3e+a4e+a 1e+a2e+a3e+a4e+a 1e+a2e+a3e+a4e+a 1e+a2e+a3e+a4e+a 

  D                A                D                A
G|----------------|----------------|----------------|----------------|
D|----------------|----------------|3~----3-5~----5-|7---------------|
A|5-5-5-5-5-5-5-5-|----------------|----------------|----------------|
E|----------------|5-5-5-5-5-5-5-5-|----------------|----------------|
  1e+a2e+a3e+a4e+a 1e+a2e+a3e+a4e+a 1e+a2e+a3e+a4e+a|1e+a2e+a3e+a4e+a 

Chorus 2:
  A       D        A       E        A      D         A       E
G|----------------|----------------|----------------|----------------|
D|----------------|----------------|----------------|----------------|
A|--------5-5-5-5-|--------7-7-7-7-|--------5-5-5-5-|9-9-9-9-7-7-7-7-|
E|5-5-5-5---------|5-5-5-5---------|5-5-5-5---------|----------------|
  1e+a2e+a3e+a4e+a 1e+a2e+a3e+a4e+a 1e+a2e+a3e+a4e+a 1e+a2e+a3e+a4e+a

  A       D        A       E        A      D         A       E
G|----------------|----------------|----------------|----------------|
D|----------------|----------------|----------------|----------------|
A|--------5-5-5-5-|--------7-7-7-7-|--------5-5-5-5-|9-9-9-9-7-7-7-7-|
E|5-5-5-5---------|5-5-5-5---------|5-5-5-5---------|----------------|
  1e+a2e+a3e+a4e+a 1e+a2e+a3e+a4e+a 1e+a2e+a3e+a4e+a 1e+a2e+a3e+a4e+a 

  A       D        A       E        A      D         A       E
G|----------------|----------------|----------------|----------------|
D|----------------|----------------|----------------|4~------2-4-2-0-|
A|--------5-------|--------7-------|--------5-------|----------------|
E|5---------------|5---------------|5---------------|----------------|
  1e+a2e+a3e+a4e+a 1e+a2e+a3e+a4e+a 1e+a2e+a3e+a4e+a 1e+a2e+a3e+a4e+a 

  A       D        A       E        A      D         A       E
G|----------------|----------------|----------------|----------------|
D|----------------|----------------|----------------|----------------|
A|--------5-5-5-5-|--------7-7-7-7-|--------5-5-5-5-|9-9-9-9-7-7-7-7-|
E|5-5-5-5---------|5-5-5-5---------|5-5-5-5---------|----------------|
  1e+a2e+a3e+a4e+a 1e+a2e+a3e+a4e+a 1e+a2e+a3e+a4e+a 1e+a2e+a3e+a4e+a 

Outro:
  A       D        A       E        A      D         A       E
G|----------------|----------------|----------------|----------------|
D|----------------|----------------|----------------|----------------|
A|--------5-5-5-5-|4-4-4-4-2-2-2-2-|--------5-5-5-5-|9-9-9-9-7-7-7-7-|
E|5-5-5-5---------|----------------|5-5-5-5---------|----------------|
  1e+a2e+a3e+a4e+a 1e+a2e+a3e+a4e+a 1e+a2e+a3e+a4e+a 1e+a2e+a3e+a4e+a 

  A       D        A       E        A      D         A       E
G|----------------|----------------|----------------|----------------|
D|----------------|----------------|----------------|----------------|
A|--------5-5-5-5-|4-4-4-4-2-2-2-2-|--------5-5-5-5-|9-9-9-9-7-7-7-7-|
E|5-5-5-5---------|----------------|5-5-5-5---------|----------------|
  1e+a2e+a3e+a4e+a 1e+a2e+a3e+a4e+a 1e+a2e+a3e+a4e+a 1e+a2e+a3e+a4e+a 

 
G|----------------|----------------|----------------|
D|6-6-6-6-7-7-7-7-|9-9-9-9-7-------|7~--------------|
A|----------------|----------------|----------------|
E|----------------|----------------|----------------|
  1e+a2e+a3e+a4e+a 1e+a2e+a3e+a4e+a 1e+a2e+a3e+a4e+a
            
Submit corrections



        Crusin The Strip lessons Hard to play? Try these video lessons and learn fast Crusin The Strip lessons
        
↑ Back to top | Tablatures and chords for acoustic guitar and electric guitar, ukulele, drums are parodies/interpretations of the original songs. You may use it for private study, scholarship, research or language learning purposes only