» » »

Cake - Walk On By Tabs

Artists:  A B C D E F G H I J K L M N O P Q R S T U V W X Y Z # 

Walk On By Tabs

(ver. 2) Click to play this song!
Cake
 Rating:
4/5 (4 votes)


 Walk On By lessons Tabs too difficult? Try these video lessons and learn fast
 
                It took me a while to learn this cause i did it by ear....its a fun solo..the tabs in 
d to get the country solo sound.


E--------------------------------------------10---12----10---9----7-5-7/9-----|
B------------------------------10---------------------------------------------|
G----------------------4-7-9b11---9b11/7--7/9---9-----9-----9---9-------------|
D-------------------4-7------------------9------------------------------------|
A----------------5-7----------------------------------------------------------|
D 00--00--004-7/9-------------------------------------------------------------|

E-----------------------------------------------------------------------------|
B-7----7----7-----------------------------------------------------------------|
G-9b11-9b11-9b11r9/7-------------7--------------------------------------------|
D--------------------9-9-7---7-9-----0/4444-----------------------------------|
A--------------------------9--------------------------------------------------|
D--------------------------------------------3-3-30---------------------------|

Thats pretty much it, this is my first tab so tell me if i suck or not.
            
Submit corrections



        Walk On By lessons Hard to play? Try these video lessons and learn fast Walk On By lessons
        
↑ Back to top | Tablatures and chords for acoustic guitar and electric guitar, ukulele, drums are parodies/interpretations of the original songs. You may use it for private study, scholarship, research or language learning purposes only