» » »

Cake - Jolene Bass

Artists:  A B C D E F G H I J K L M N O P Q R S T U V W X Y Z # 

Jolene Bass

(ver. 3) Click to play this song!
Cake
 Rating:
4/5 (4 votes)


 Jolene lessons Tabs too difficult? Try these video lessons and learn fast
 
                
This is my version of how I play the song.
I add varations and different ways to play many of the parts I am about to list.  These 
basically the main things you need to know, then you can adapt them and change them to 
you want them.
*********************************************************

INTRO

g |-----------------------------------------------------------------|
d |-----------------------------------------------------------------|
a |-----------------------------------------------------------------|
e |----4/ slide down neck-------------------------------------------|

play that a few times then play this next little lick below to get into the Main bassline

g |------------6-6-8------------------------------------------------|
d |----7--9-9-------------------------------------------------------|
a |-----------------------------------------------------------------|
e |-----------------------------------------------------------------|


MAIN BASSLINE

g |---------------------------4--------------------------------------|
d |-------6----------------------4-x-4--4-5-6------------------------|
a |----------6-x-6--7-6-----2----------------------------------------|
e |----4-------------------------------------------------------------|

basically repeat that throughout the song with variations of the bassline however much you want to do


DURRING GUITAR SOLO

g |-----------------------------------------------------------------|
d |-----------------------------------------------------------------|
a |-----------------------------------------------------------------|
e |----4------------------------------------------------------------|

first play just this a few times then play the bassline below.


g |--------------------------------------------------------------------|
d |--------6-4-------4-2-----------------------------------------------|
a |----------------------0-2-3-----------------------------------------|
e |----4-4-------0-2---------------------------------------------------|

repeat this until the guitar solo is over


OUTRO

g |-----------------------------------------------------------------|
d |-----------------------------------------------------------------|
a |-----------------------------------------------------------------|
e |----4------------------------------------------------------------|

end off with a few of these with variations and added notes if wanted
            
Submit corrections



        Jolene lessons Hard to play? Try these video lessons and learn fast Jolene lessons
        
↑ Back to top | Tablatures and chords for acoustic guitar and electric guitar, ukulele, drums are parodies/interpretations of the original songs. You may use it for private study, scholarship, research or language learning purposes only