» » »

Cabrera Ryan - On The Way Down Tabs

Artists:  A B C D E F G H I J K L M N O P Q R S T U V W X Y Z # 

On The Way Down Tabs

(ver. 1) Click to play this song!
Cabrera Ryan
 Rating:
4/5 (4 votes)
                NTRO/VERSE

e|-0--0--0--0--0-0--0---||
B|-0--0--0--0--0-0--0---||
G|-6--6--6--6--6-6--6---||
D|-4--0--7--6--7-6--4---|| 
A|----------------------||
E|----------------------||


CHORUS

e|-2--2--0--0----||  E|-2--0--2--|               
B|-2--3--0--0----||  B|-2--0--3--| 
G|-2--2--2--1----||: G|-2--1--2--|
D|-4--0--2--2----||  D|-4--2--0--|
A|-4-----0--2----||  A|-4--2-----|
E|-2--------0----||  E|-4--0-----|
                               
BRIDGE

e|-0--0--0--0--2--0--2--0--||
B|-0--0--0--0--2--0--3--0--||
G|-1--7--4--7--2--1--2--1--||
D|-2--7--4--7--4--2--0--2--||
A|-2--5--2--5--4--2-----2--||
E|-0-----------2--0--------||

Break Down OUTRO

e|--0------0----|------0--0--|--0--0|
B|----0--0---0-0|--3-----3---|--0--3| 
G|-----2------1-|-----2-----:|--1--2| weird nonsense during the outro with a 
D|-4-----2------|0---0----0--|--2--0|  sax solo as well
A|--------------|------------|--2---|
E|--------------|------------|--0---|
            
Submit corrections

↑ Back to top | Tablatures and chords for acoustic guitar and electric guitar, ukulele, drums are parodies/interpretations of the original songs. You may use it for private study, scholarship, research or language learning purposes only