Home » B » Bush »

Bush - Nurse Tabs

Artists:  A B C D E F G H I J K L M N O P Q R S T U V W X Y Z # 

Nurse Tabs

(ver. 1) Click to play this song!
Bush
 Rating:
4.3/5 (23 votes)
                Intro, Distortion
  F                       E               D               F
e|--------------------------------------------------------------------------------|
B|--------------------------------------------------------------------------------|
G|11-11-11-11-11-11-11-11/9-9-9-9-9-9-9-9/7-7-7-7-7-7-7-7/11-11-11-11-11-11-11-11-|
D|11-11-11-11-11-11-11-11/9-9-9-9-9-9-9-9/7-7-7-7-7-7-7-7/11-11-11-11-11-11-11-11-|
A|9--9--9--9--9--9--9--9-/7-7-7-7-7-7-7-7/5-5-5-5-5-5-5-5/9--9--9--9--9--9--9--9--|
E|--------------------------------------------------------------------------------|
 
 
 
[Verse]
  Clean
 
  F                       E               D               F
e|--------------------------------------------------------------------------------|
B|--------------------------------------------------------------------------------|
G|11-11-11-11-11-11-11-11/9-9-9-9-9-9-9-9/7-7-7-7-7-7-7-7/11-11-11-11-11-11-11-11-|
D|11-11-11-11-11-11-11-11/9-9-9-9-9-9-9-9/7-7-7-7-7-7-7-7/11-11-11-11-11-11-11-11-|
A|9--9--9--9--9--9--9--9-/7-7-7-7-7-7-7-7/5-5-5-5-5-5-5-5/9--9--9--9--9--9--9--9--|
E|--------------------------------------------------------------------------------|
 
 
 
[Chorus]
 distortion
  F                       E               D               F
e|--------------------------------------------------------------------------------|
B|--------------------------------------------------------------------------------|
G|11-11-11-11-11-11-11-11/9-9-9-9-9-9-9-9/7-7-7-7-7-7-7-7/11-11-11-11-11-11-11-11-|
D|11-11-11-11-11-11-11-11/9-9-9-9-9-9-9-9/7-7-7-7-7-7-7-7/11-11-11-11-11-11-11-11-|
A|9--9--9--9--9--9--9--9-/7-7-7-7-7-7-7-7/5-5-5-5-5-5-5-5/9--9--9--9--9--9--9--9--|
E|--------------------------------------------------------------------------------|
 
 
 
 
 
chorus 1 ends on -
  F#
e|---------------------------------------------------------------------------|
B|---------------------------------------------------------------------------|
G|---------------------------------------------------------------------------|
D|4-4-4-4--------------------------------------------------------------------|
A|4-4-4-4--------------------------------------------------------------------|
E|0-2-0-2--------------------------------------------------------------------|
 
then this little part -
 
  may  The light be   always  over   you
 
e|-----------------------------------------------------------------------------|
B|-----------------------------------------------------------------------------|
G|-----------------------------------------------------------------------------|
D|7-x-x-x----2-x-x-x----4-x-x-x----4-x-x-x-------------------------------------|
A|7-x-x-x----2-x-x-x----4-x-x-x----4-x-x-x-------------------------------------|
E|5-x-x-x------x-x-x----2-x-x-x----2-x-x-x-------------------------------------|
 
 
[Chorus 2] OHHHH, Sister rose!
  D            F#
e|-----------------------------------------------------------------------------|
B|-----------------------------------------------------------------------------|
G|7-7-7-7-7-7---------3------3-------------------------------------------------|
D|7-7-7-7-7-7---------4------4-------------------------------------------------|
A|5-5-5-5-5-5-----4------4-----------------------------------------------------|
E|-------------2---------------------------------------------------------------|
 
Strawberry love overload
  D            F#
e|-----------------------------------------------------------------------------|
B|-----------------------------------------------------------------------------|
G|7-7-7-7-7-7---------3------3-------------------------------------------------|
D|7-7-7-7-7-7---------4------4-------------------------------------------------|
A|5-5-5-5-5-5-----4------4------4----------------------------------------------|
E|--------------2--------------------------------------------------------------|
 
 
 
 
 
 
 
There she goes                 Sister rose                         Song ends on F#
 E5 let ring into palm muting slidy things :D
e|---------------------------------------------------------------|-------------|
B|---------------------------------------------------------------|-------------|
G|---------------------------------------------------------------|-------------|
D|2------x-x-x-----2-----x-x-x--2------x-x-x-----2-----x-x-x-----|--4----------|
A|2------x-x-x-----2-----x-x-x--2------x-x-x-----2-----x-x-x-----|--4----------|
E|-------x-x-x-----------x-x-x---------x-x-x-----------x-x-x-----|--2----------|
            
Submit corrections

↑ Back to top | Tablatures and chords for acoustic guitar and electric guitar, ukulele, drums are parodies/interpretations of the original songs. You may use it for private study, scholarship, research or language learning purposes only