» » »

Built To Spill - Carry The Zero Bass

Artists:  A B C D E F G H I J K L M N O P Q R S T U V W X Y Z # 

Carry The Zero Bass

(ver. 2) Click to play this song!
Built To Spill
 Rating:
2.4/5 (30 votes)

 Carry The Zero lessons Tabs too difficult? Try these video lessons and learn fast
 
                -------------------------------------------------------------------------------
                             Carry The Zero - Built to Spill
-------------------------------------------------------------------------------
Tabbed by: marceloargh
Tuning: Standard (EADG)

Verse 1 (variation 1): played twice before vocal
G|----------------------------------------------------------------------------|
D|----------------------------------------------------4-6-4---4---4----2---2--|
A|--0---0---0-0-0-4-5-7---7---7-7-7-7-9-2---2---2-2-2--------------------4----|
E|----------------------------------------------------------------------------|


Verse 1 (variation 2): played mostly when vocals are on
G|----------------------------------------------------------------------------|
D|----------------------------9---------------------------4---4---4----2---2--|
A|--0---0---0---0-4-5-7---7-------7-7-\-2---2---2---2-2-2----------------4----|
E|----------------------------------------------------------------------------|


Verse 1 (variation 3): played mostly during solo and from 03:13 until 03:34 (2 times)
G|----------------------------------------------------------------------------|
D|------7-----------------9-----------------4---------4-6-4---4---4----2---2--|
A|--0-------0-0-0-4-5-7-------7-7-7-7-0-2-------2---2--------------------4----|
E|----------------------------------------------------------------------------|





Verse 2 (variation 1): starts at 03:34, played 2 times
G|---------------------------------------------------------------------------|
D|---------------------------------------------------------------------------|
A|--0-------0---------0-------0-----0-0-7-------7---------7-------7-7-7------|
E|---------------------------------------------------------------------------|


Verse 2 (variation 2): starts at 03:54, played 1 time
G|---------------------------------------------------------------------------|
D|---------------------------------------------------------------------------|
A|--0-------0---------0-------0-----0-0-7-7-7-7-7-7-7-7-7-7-7-7-7-7-7-7------|
E|---------------------------------------------------------------------------|


Verse 2 (variation 3): from 04:04 to 04:34, played 3 times
G|---------------------------------------------------------------------------|
D|---------------------------------------------------------------------------|
A|--0-0-0-0-0-0-0-0-0-0-0-0-0-0-0-0-----7-7-----7-7-----7-7---7---7----------|
E|----------------------------------0-0-----0-0-----0-0-----0---0------------|


Verse 2 (variation 4): from 04:34 until the end
G|---------------------------------------------------------------------------|
D|---------------------------------------------------------------------------|
A|--0-0-0-0-0-0-0-0-0-0-0-0-0-0-0-0-7-7-14\-7-7-2---7-7-14\-7-9-7-4----------|
E|---------------------------------------------------------------------------|            
Submit corrections


        Carry The Zero lessons Hard to play? Try these video lessons and learn fast Carry The Zero lessons
        
↑ Back to top | Tablatures and chords for acoustic guitar and electric guitar, ukulele, drums are parodies/interpretations of the original songs. You may use it for private study, scholarship, research or language learning purposes only