Home » B » Bryan Adams »

Bryan Adams - Summer Of ’69 Bass

Artists:  A B C D E F G H I J K L M N O P Q R S T U V W X Y Z # 

Summer Of ’69 Bass

(ver. 3) Click to play this song!
Bryan Adams
"(9)
-----------------------------------------------------------------------------
                         SUMMER OF 69 - Bryan Adams
-----------------------------------------------------------------------------


Tuning: Dropped D - D A D G

INTRO    x8
|----------|--------|
|:--------:|---5777-|
|:--------:|-------0|
|----------|--------|

PRECHORUS 1
|--------|--------|--------|--------|
|--------|--------|--------|--------|
|2--2-022|0--0-024|5--5----|------0-|
|--------|--------|-----044|5--45---|

|--------|--------|--------|--------|--------|--------|
|--------|------2-|--------|--------|--------|--------|
|2--2-022|0--0-0-0|5--5----|------0-|2--2-022|0-------|
|--------|--------|-----044|5--45---|--------|--------|

CHORUS 1
|--------|---------|--------|--------|
|--------|---------|--------|--------|
|--------|---------|0-00000-|00000000|
|0-00000-|0000004/7|--------|--------|

VERSE 1
|--------|---------|--------|--------|--------|---------|--------|--------|
|--------|---------|--------|--------|--------|---------|--------|---5777-|
|--------|---------|0--00--0|0--00-0-|--------|---------|0--0--00|--------|
|0--00--0|0--00-4/7|--------|--------|0--00--0|0--00-4/7|--------|--------|

PRECHORUS 2
|--------|--------|--------|----------|
|--------|------2-|--------|----------|
|2--2--22|0--0-0-0|5--5----|---------0|
|--------|--------|-----04-|5--05\4/5-|

|--------|--------|--------|--------|--------|---------|
|--------|-----242|--------|--------|--------|---------|
|2--2-022|0--0----|5--5----|------0-|2--2-022|0-----12\|
|--------|--------|-----04-|5--45---|--------|---------|

CHORUS 2
|--------|---------|--------|--------|--------|---------|--------|-------------|
|--------|---------|--------|--------|--------|---------|--------|-------------|
|--------|---------|0-00000-|00000000|--------|---------|0-000000|0/1212121212\|
|0-00000-|0000004/7|--------|--------|0-00000-|0000004/7|--------|-------------|

BRIDGE
|--------|--------|--------|--------|--------|--------|--------|---------------|
|--------|--------|--------|--------|--------|--------|--------|---------------|
|--------|1--11-1-|3--33-3-|55555-1-|--------|1--11-1-|3--33-3/|15151515151512\|
|3--33-3-|--------|--------|--------|3--33-3-|--------|--------|---------------|

|--------|--------|--------|--------|--------|--------|--------|--------|
|--------|--------|--------|--------|--------|--------|--------|----777\|
|--------|--------|0-------|--------|--------|--------|0-------|--------|
|0-------|-----4/7|--------|--------|0-------|-----4/7|--------|--------|

VERSE 2                                                  
|--------|---------|--------|--------|--------|---------|--------|---------|
|--------|---------|--------|--------|--------|---------|--------|---5/7777|
|--------|---------|0--00--0|0--00-0-|--------|---------|0--0--00|---------|
|0--00--0|0--00-4/7|--------|--------|0--00--0|0--00-4/7|--------|---------|

PRECHORUS 3
|--------|--------|--------|--------|
|--------|--------|--------|--------|
|2--2-022|0--0--24|5--5----|------0-|
|--------|--------|-----04-|5--45---|

|--------|--------|--------|--------|--------|---------|
|--------|-----242|--------|--------|--------|---------|
|2--2-022|0--0----|5--5----|------0-|2--2-022|0-----12\|
|--------|--------|-----04-|5--45---|--------|---------|

OUTRO
|--------|---------|--------|--------|--------|---------|--------|--------|
|--------|---------|--------|--------|--------|---------|--------|--------|
|--------|---------|0-00000-|00000000|--------|---------|0-00000-|00000000|
|0-00000-|0000004/7|--------|--------|0-00000-|0000004/7|--------|--------|

|--------|---------|--------|--------|--------|---------|---------|-----/76--|
|--------|---------|--------|--------|--------|---------|--5/7----|/7777---97|
|--------|---------|0-00000-|0000-0--|--------|---------|0-----00-|----------|
|0-00000-|0000004/7|--------|----4-42|0-00000-|0000004/7|---------|----------|

|--------|---------|--------|---------|--------|---------|--------|---------|
|--------|---------|--------|----/474-|--------|---------|--------|-/7777777|
|--------|---------|0--00--0|0-------7|--------|---------|00000000|0--------|
|0-000000|0000004/7|--------|---------|00000-00|0000004/7|--------|---------|

|--------|---------|--------|----------|--------|---------|--------|
|--------|---------|--------|/7777/7777|--------|---------|--------|
|--------|---------|00000000|----------|--------|---------|00000000|
|00000000|0000004/7|--------|----------|00000000|0000004/7|--------|
"            
Submit corrections

↑ Back to top | Tablatures and chords for acoustic guitar and electric guitar, ukulele, drums are parodies/interpretations of the original songs. You may use it for private study, scholarship, research or language learning purposes only