Home » B » Bryan Adams »

Bryan Adams - Summer Of ’69 Bass

Artists:  A B C D E F G H I J K L M N O P Q R S T U V W X Y Z # 

Summer Of ’69 Bass

(ver. 1) Click to play this song!
Bryan Adams
 Rating:
4/5 (4 votes)
                "(9)

Tuning: Normal (E,A,D,G)

- This tab can be played both slowly and fast, I am just gonna put in the slow tab, 
that is the easiest for beginners :) Enjoy :)

Intro:
No bass

The bass enters first when he has says:
"Was the summer of '69"

Verse 1:
G|-------------------------------|
D|-------------------------------|
A|-5---5-----------5---5---------|
E|---------5---5-----------5---5-|

Chorus 1:
G|-------------------------------|
D|-------------------------------|
A|---------5---------------------| x2
E|-7---5-------3-----------------|

G|-------------------------------|
D|-------------------------------|
A|-------------------------------|
E|-7---5-------------------------|

G|-------------------------------|
D|-------------------------------|
A|-5---5-----------5---5---------|
E|---------5---5-----------5---5-|

Verse 2:
G|-------------------------------|
D|-------------------------------|
A|-5---5-----------5---5---------|
E|---------5---5-----------5---5-|

Chorus 2:
G|-------------------------------|
D|-------------------------------|
A|---------5---------------------| x2
E|-7---5-------3-----------------|

G|-------------------------------|
D|-------------------------------|
A|-------------------------------|
E|-7---5-------------------------|

G|-------------------------------|
D|-------------------------------|
A|-5---5-----------5---5---------|
E|---------5---5-----------5---5-|

Interlude:
G|-------------------------------|
D|-------------------------------|
A|-----1---3---1-----------------|
E|-1-----------------------------|

G|-------------------------------|
D|-------------------------------|
A|-----1---3---3-----------------|
E|-1-----------------------------|

Chorus 3:
G|-------------------------------|
D|-------------------------------|
A|-5---5-----------5---5---------|
E|---------5---5-----------5---5-|

Verse 3:
G|-------------------------------|
D|-------------------------------|
A|-5---5-----------5---5---------|
E|---------5---5-----------5---5-|

Chorus 4:
G|-------------------------------|
D|-------------------------------|
A|---------5---------------------| x2
E|-7---5-------3-----------------|

G|-------------------------------|
D|-------------------------------|
A|-------------------------------|
E|-7---5-------------------------|

G|-------------------------------|
D|-------------------------------|
A|-5---5-----------5---5---------| - Until it fades out
E|---------5---5-----------5---5-|
____________________________________________________________________________
"            
Submit corrections

↑ Back to top | Tablatures and chords for acoustic guitar and electric guitar, ukulele, drums are parodies/interpretations of the original songs. You may use it for private study, scholarship, research or language learning purposes only