» » »

Bryan Adams - Summer Of ’69 Tabs

Artists:  A B C D E F G H I J K L M N O P Q R S T U V W X Y Z # 

Summer Of ’69 Tabs

(ver. 1) Click to play this song!
Bryan Adams
 Rating:
4/5 (4 votes)


 Summer Of ’69 lessons Tabs too difficult? Try these video lessons and learn fast
 
                This is a tight song...

*=Pm

distrotion the whole way through

Intro             verse

e----------------|----------------------------------
b---3-3----------|3-3-------------------------------
g---2-2-22222222-|2-2-222222222--2-2----------------
d---000-00000000-|000-000000000--2-2-22222222-------(x4)
a----------------|---------------000-00000000-------
E----------------|----------------------------------
     *  ********   *  *********   *  ********

Chorus (strum pattern not included)

    Bm    A   D  G        (LET THESE CHORDS RING)
e---2-----0---2--3---------2---0--------------------
b---3-----2---3--3---------3---2--------------------
g---4-----2---2--0--(x2)---4---2--------------------
d---4-----2---0--0---------4---2--------------------
a---2-----0------2---------2---0--------------------
E----------------3----------------------------------

COOL RIFF afer "those were the best days of my life"

e--0-2-3-2-0-2--------------------------------------(play this after every chorus)
b---3-3-3-3-----0-2-3-2-0-2-------------------------
g----------------2-2-2-2----------------------------
d---------------------------------------------------
a---------------------------------------------------
E---------------------------------------------------

Bridge(strum pattern not shown)
"we were killing time"

   F   Bb C  Bb F  Bb C(hold twice as long)
e--1---1--3--1--1--1--3------------------------------
b--1---3--5--3--1--3--5------------------------------
g--2---3--5--3--2--3--5------------------------------
d--3---3--5--3--3--3--5------------------------------
a--3---1--3--1--3--1--3------------------------------
E--1------------1------------------------------------

cool little solo deal.

e--12-12--14-14--15-15--14-14--12-14-----------------------------------
b------------------------------------12-12--14-14--15-15--14-14--12-14-(x5)
g----------------------------------------------------------------------
d----------------------------------------------------------------------
a----------------------------------------------------------------------
E----------------------------------------------------------------------

Outro(played over chords)(fades out as song ends)

e----------------14~~~~-----------------------------12/14-12~-14b15r14~-14-12h14p12
b------------------------------------------12-14-15~-------------------------------
g-7~--9/11-9-11b12r11~---14-14h16p14h16p14-----------------------------------------
d----------------------------------------------------------------------------------
a----------------------------------------------------------------------------------
E----------------------------------------------------------------------------------


order

intro
verse
chrous
COOL RIFF
verse
Chorus
COOL RIFF
Bridge
Solo deal
Chorus
Outro


Fun song..tabbed it because summers over and i liked listening to it so i tabbed it
listen to the recording for strum pattern and to correct minor inperfections in this tab... have fun
            
Submit corrections



        Summer Of ’69 lessons Hard to play? Try these video lessons and learn fast Summer Of ’69 lessons
        
↑ Back to top | Tablatures and chords for acoustic guitar and electric guitar, ukulele, drums are parodies/interpretations of the original songs. You may use it for private study, scholarship, research or language learning purposes only