» » »

Bryan Adams - 18 Til I Die Tabs

Artists:  A B C D E F G H I J K L M N O P Q R S T U V W X Y Z # 

18 Til I Die Tabs

(ver. 1) Click to play this song!
Bryan Adams
 Rating:
2/5 (26 votes)

 18 Til I Die  lessons Tabs too difficult? Try these video lessons and learn fast
 
                18 TIL I DIE

e|------4/2-----2--0-----0-----0-----0---------4/2-----2--0-----0-----0-----0-----|
B|----5------0-------------5-----5-----5-----5------0-------------5-----5-----5---|
G|--4-----------------4------4-----4-------4-----------------4------4-----4-------|
D|--------------------------------------------------------------------------------|
A|--------------------------------------------------------------------------------|
E|--------------------------------------------------------------------------------|

e|------4/2-----2--0-----0-----0-----0---------4/2-----2--0-----0-----0-----0-----|
B|----5------0-------------5-----5-----5-----5------0-------------5-----5-----5---|
G|--4-----------------4------4-----4-------4-----------------4------4-----4-------|
D|--------------------------------------------------------------------------------|
A|--------------------------------------------------------------------------------|
E|--------------------------------------------------------------------------------|
 I WANNA BE YOUNG FOR THE REST OF MY LIFE  NEVER SAY NO    TRY ANYTHING TWICE

e|------4/2-----2--0-----0-----0-----0---------4/2-----2--0-----0-----0-----0-----|
B|----5------0-------------5-----5-----5-----5------0-------------5-----5-----5---|
G|--4-----------------4------4-----4-------4-----------------4------4-----4-------|
D|--------------------------------------------------------------------------------|
A|--------------------------------------------------------------------------------|
E|--------------------------------------------------------------------------------|
  TIL THE ANGELS COME  AND ASK ME TO FLY   GONNA BE 18      TIL I DIE

e|---------------------------------------------------------------------------|
B|---------------------------------------------------------------------------|
G|--9-9-9----------7-7-7-----9-9----------7-7-7-----9-9----------7-7-7-------|
D|--9-9-9--9--7-7--7-7-7-----9-9--9--7-7--7-7-7-----9-9--9--7-7--7-7-7-------|
A|--7-7-7--9--7-7--5-5-5-----7-7--9--7-7--5-5-5-----7-7--9--7-7--5-5-5-------|
E|---------7--5-5-----------------7--5-5-----------------7--5-5--------------|
    CAN'T LIVE FOREVER       WHOEVER SAID THAT      DON'T WANNA GROW UP
    THAT'S WISHFUL THINKIN'  MUSTA BEEN DRINKIN'    I DON'T SEE WHY

e|-----------------------------------|
B|-----------------------------------|
G|-----------------------------------|
D|--5-5-5-5-5-5---7-7-7-7-7-7--------|
A|--5-5-5-5-5-5---7-7-7-7-7-7--------|
E|--3-3-3-3-3-3---5-5-5-5-5-5--------|
    I COULD CARE  TIME FLIES BY
    LESS IF

e|--2-2-2-2-2-2---3-3-3-3-3-3---------------------------------|
B|--3-3-3-3-3-3---3-3-3-3-3-3-----------------2-2-2-2-2-2-----|
G|--2-2-2-2-2-2---0-0-0-0-0-0-----------------2-2-2-2-2-2-----|
D|----------------0-0-0-0-0-0---2-2-2-2-2-2---2-2-2-2-2-2-----|
A|----------------2-2-2-2-2-2---2-2-2-2-2-2-------------------|
E|----------------3-3-3-3-3-3---------------------------------|
    18 TIL I DIE     GONNA BE   18 TIL I      DIE

e|--2-2-2-2-2-2---3-3-3-3-3-3----------------------------------|
B|--3-3-3-3-3-3---3-3-3-3-3-3------------------2-2-2-2-2-2-----|
G|--2-2-2-2-2-2---0-0-0-0-0-0------------------2-2-2-2-2-2-----|
D|----------------0-0-0-0-0-0---2-2-2-2-2-2----2-2-2-2-2-2-----|
A|----------------2-2-2-2-2-2---2-2-2-2-2-2--------------------|
E|----------------3-3-3-3-3-3----------------------------------|
   IT SURE FEELS  TO BE ALIVE   SOMEDAY I'LL   55
   GOOD                         BE 18 GOIN' ON

e|--2-2-2-2-2-2---3-3-3-3-3-3--------------------|
B|--3-3-3-3-3-3---3-3-3-3-3-3----2-2-2-2-2-2-2---|
G|--2-2-2-2-2-2---0-0-0-0-0-0----2-2-2-2-2-2-2---|
D|----------------0-0-0-0-0-0----2-2-2-2-2-2-2---|
A|----------------2-2-2-2-2-2--------------------|
E|----------------3-3-3-3-3-3--------------------|
    18 TIL I      DIE ALRIGHT

e|------4/2-----2--0-----0-----0-----0---------4/2-----2--0-----0-----0-----0-----|
B|----5------0-------------5-----5-----5-----5------0-------------5-----5-----5---|
G|--4-----------------4------4-----4-------4-----------------4------4-----4-------|
D|--------------------------------------------------------------------------------|
A|--------------------------------------------------------------------------------|
E|--------------------------------------------------------------------------------|
    ANYWAY            I JUST WANNA SAY     WHY BOTHER WITH   WHAT HAPPENED YESTERDAY

e|------4/2-----2--0-----0-----0-----0---------4/2-----2--0-----0-----0-----0-----|
B|----5------0-------------5-----5-----5-----5------0-------------5-----5-----5---|
G|--4-----------------4------4-----4-------4-----------------4------4-----4-------|
D|--------------------------------------------------------------------------------|
A|--------------------------------------------------------------------------------|
E|--------------------------------------------------------------------------------|
   THAT'S NOT MY      I LIVE FOR THE       IF YOU WANNA      GET BOTH FEET IN IT
   STYLE              MINUTE               STAY YOUNG        18 TIL I DIE

e|-------------------------------------------------------------------------------|
B|-------------------------------------------------------------------------------|
G|--9-9-9-----------7-7---9-9----------7-7-7----------9-9----------7-7-7---------|
D|--9-9-9--9--7-7---7-7---9-9--9--7-7--7-7-7----------9-9--9--7-7--7-7-7---------|
A|--7-7-7--9--7-7---5-5---7-7--9--7-7--5-5-5----------7-7--9--7-7--5-5-5---------|
E|---------7--5-5-----------------7--5-5--------------------7--5-5---------------|
    A LITTLE BIT OF THIS   A LITTLE BIT OF EVERYTHING IT'S NOT HOW YOU LOOK
    A LITTLE BIT OF THAT   GOTTA GET ON TRACK         IT'S WHAT YOU FEEL INSIDE

e|-----------------------------------|
B|-----------------------------------|
G|-----------------------------------|
D|--5-5-5-5-5-5---7-7-7-7-7-7--------|
A|--5-5-5-5-5-5---7-7-7-7-7-7--------|
E|--3-3-3-3-3-3---5-5-5-5-5-5--------|
    I DON'T CARE  I DON'T NEED
    WHEN          TO KNOW WHY

e|--2-2-2-2-2-2---3-3-3-3-3-3---------------------------------|
B|--3-3-3-3-3-3---3-3-3-3-3-3-----------------2-2-2-2-2-2-----|
G|--2-2-2-2-2-2---0-0-0-0-0-0-----------------2-2-2-2-2-2-----|
D|----------------0-0-0-0-0-0---2-2-2-2-2-2---2-2-2-2-2-2-----|
A|----------------2-2-2-2-2-2---2-2-2-2-2-2-------------------|
E|----------------3-3-3-3-3-3---------------------------------|
    18 TIL I DIE     GONNA BE   18 TIL I      DIE

e|--2-2-2-2-2-2---3-3-3-3-3-3----------------------------------|
B|--3-3-3-3-3-3---3-3-3-3-3-3------------------2-2-2-2-2-2-----|
G|--2-2-2-2-2-2---0-0-0-0-0-0------------------2-2-2-2-2-2-----|
D|----------------0-0-0-0-0-0---2-2-2-2-2-2----2-2-2-2-2-2-----|
A|----------------2-2-2-2-2-2---2-2-2-2-2-2--------------------|
E|----------------3-3-3-3-3-3----------------------------------|
   IT SURE FEELS  TO BE ALIVE   SOMEDAY I'LL   55
   GOOD                         BE 18 GOIN' ON

e|--2-2-2-2-2-2---3-3-3-3-3-3----------------------------------|
B|--3-3-3-3-3-3---3-3-3-3-3-3----2-2-2-2-2-2-2---2-2-2-2-2-2---|
G|--2-2-2-2-2-2---0-0-0-0-0-0----2-2-2-2-2-2-2---2-2-2-2-2-2---|
D|----------------0-0-0-0-0-0----2-2-2-2-2-2-2---2-2-2-2-2-2---|
A|----------------2-2-2-2-2-2----------------------------------|
E|----------------3-3-3-3-3-3----------------------------------|
    18 TIL I      DIE YEAH       THERE'S ONE     I'M SURE GONNA 
                                 THING FOR SURE  TRY

e|--2-2-2-2-2-2---3-3-3-3-3-3----------------------------------|
B|--3-3-3-3-3-3---3-3-3-3-3-3------------------2-2-2-2-2-2-----|
G|--2-2-2-2-2-2---0-0-0-0-0-0------------------2-2-2-2-2-2-----|
D|----------------0-0-0-0-0-0---2-2-2-2-2-2----2-2-2-2-2-2-----|
A|----------------2-2-2-2-2-2---2-2-2-2-2-2--------------------|
E|----------------3-3-3-3-3-3----------------------------------|

e|-------------------------------------------|
B|-------------------------------------------|
G|--11-11-11-11-11-11--12-12-12-12-12-12-----|
D|--11-11-11-11-11-11--12-12-12-12-12-12-----|
A|---9--9--9--9--9--9--10-10-10-10-10-10-----|
E|-------------------------------------------|

e|-------------------------------------------------------------|
B|-------------------------------------------------------------|
G|--12-12-12--11-11-11--9-9-9--8-8-8--7-7-7--6-6-6--5-5-5------|
D|--12-12-12--11-11-11--9-9-9--8-8-8--7-7-7--6-6-6--5-5-5------|
A|--10-10-10---9--9--9--7-7-7--6-6-6--5-5-5--4-4-4--3-3-3------|
E|-------------------------------------------------------------|

      E                       D                      G
DON'T WORRY ABOUT THE FUTURE, FORGET ABOUT THE PAST, GONNA HAVE A BALL

e|------4/2-----2--0-----0-----0-----0---------4/2-----2--0-----0-----------------|
B|----5------0-------------5-----5-----5-----5------0-------------5---------------|
G|--4-----------------4------4-----4-------4-----------------4------4-------------|
D|--------------------------------------------------------------------------------|
A|--------------------------------------------------------------------------------|
E|--------------------------------------------------------------------------------|
 GONNA HAVE A BLAST   GONNA MAKE IT LAST

e|------------2-2-2-2-2-2---3-3-3-3-3-3---------------------------------|
B|------------3-3-3-3-3-3---3-3-3-3-3-3-----------------2-2-2-2-2-2-----|
G|--9--9-9----2-2-2-2-2-2---0-0-0-0-0-0-----------------2-2-2-2-2-2-----|
D|--9--9-9------------------0-0-0-0-0-0---2-2-2-2-2-2---2-2-2-2-2-2-----|
A|--7--7-7------------------2-2-2-2-2-2---2-2-2-2-2-2-------------------|
E|--------------------------3-3-3-3-3-3---------------------------------|
              18 TIL I DIE     GONNA BE   18 TIL I      DIE

e|--2-2-2-2-2-2---3-3-3-3-3-3----------------------------------|
B|--3-3-3-3-3-3---3-3-3-3-3-3------------------2-2-2-2-2-2-----|
G|--2-2-2-2-2-2---0-0-0-0-0-0------------------2-2-2-2-2-2-----|
D|----------------0-0-0-0-0-0---2-2-2-2-2-2----2-2-2-2-2-2-----|
A|----------------2-2-2-2-2-2---2-2-2-2-2-2--------------------|
E|----------------3-3-3-3-3-3----------------------------------|
   IT SURE FEELS  TO BE ALIVE   SOMEDAY I'LL   55
   GOOD                         BE 18 GOIN' ON

e|--2-2-2-2-2-2---3-3-3-3-3-3----2-2-2-2-2-2--------|
B|--3-3-3-3-3-3---3-3-3-3-3-3----3-3-3-3-3-3--------|
G|--2-2-2-2-2-2---0-0-0-0-0-0----2-2-2-2-2-2--------|
D|----------------0-0-0-0-0-0-----------------------|
A|----------------2-2-2-2-2-2-----------------------|
E|----------------3-3-3-3-3-3-----------------------|
    18 TIL I DIE     GONNA BE    18 TIL I DIE ALRIGHT

e|--2-2-2-2-2-2--3-3-3-3-3-3--2-2-2-2-2-2--3-3-3-3-3-3--2-2-2-2-2-2--3-3-3-3-3-3---|
B|--3-3-3-3-3-3--3-3-3-3-3-3--3-3-3-3-3-3--3-3-3-3-3-3--3-3-3-3-3-3--3-3-3-3-3-3---|
G|--2-2-2-2-2-2--0-0-0-0-0-0--2-2-2-2-2-2--0-0-0-0-0-0--2-2-2-2-2-2--0-0-0-0-0-0---|
D|---------------0-0-0-0-0-0---------------0-0-0-0-0-0---------------0-0-0-0-0-0---|
A|---------------2-2-2-2-2-2---------------2-2-2-2-2-2---------------2-2-2-2-2-2---|
E|---------------3-3-3-3-3-3---------------3-3-3-3-3-3---------------3-3-3-3-3-3---|
                              18 TIL I     DIE

e|--2-2-2-2-2-2--3-3-3-3-3-3--2-2-2-2-2-2--3----|
B|--3-3-3-3-3-3--3-3-3-3-3-3--3-3-3-3-3-3--3----|
G|--2-2-2-2-2-2--0-0-0-0-0-0--2-2-2-2-2-2--0----|
D|---------------0-0-0-0-0-0---------------0----|
A|---------------2-2-2-2-2-2---------------2----|
E|---------------3-3-3-3-3-3---------------3----|
                              18 TIL I     DIE
            
Submit corrections


        18 Til I Die  lessons Hard to play? Try these video lessons and learn fast 18 Til I Die  lessons
        
↑ Back to top | Tablatures and chords for acoustic guitar and electric guitar, ukulele, drums are parodies/interpretations of the original songs. You may use it for private study, scholarship, research or language learning purposes only