» » »

Brian Doerksen - Holy God Bass

Artists:  A B C D E F G H I J K L M N O P Q R S T U V W X Y Z # 

Holy God Bass

(ver. 1) Click to play this song!
Brian Doerksen
 Rating:
4/5 (4 votes)


 Holy God lessons Tabs too difficult? Try these video lessons and learn fast
 
                key: Bb

Here are some chorus and verse ideas for the bass line. 
I've separted the tab into the separate chords for the song.
You will need to strike the note more than once for each chord even if only noted 
once e.g. Bb in chorus
(note: on second holy on chorus do the 313 very quickly)

CHORUS:

   Bb         F            Gm        Eb

|--3---|-------------|------------|------|
|------|-------13----|--3---------|--0-1-|   x2
|------|------3------|------------|------|
|------|---1---------|---3---1313-|------|


   Holy..  Holy..          Holy..      God





VERSE IDEA 1:


    Bb    F/A         Gm7         Eb

|------|------|---------------|------|
|------|------|--5--35-353----|--1-1-|    x2
|--1-1-|--0-0-|---------------|------|
|------|------|---------------|------|



VERSE IDEA 2:


    Bb     F/A      Gm7     Eb

|------|----2---|--------|----|
|------|--------|--5-5--3|1---|  x2
|--1-1-|--0-----|--------|----|
|------|--------|--------|----|
            
Submit corrections



        Holy God lessons Hard to play? Try these video lessons and learn fast Holy God lessons
        
↑ Back to top | Tablatures and chords for acoustic guitar and electric guitar, ukulele, drums are parodies/interpretations of the original songs. You may use it for private study, scholarship, research or language learning purposes only