Home » B » Breaking Benjamin »

Breaking Benjamin - So Cold Bass

Artists:  A B C D E F G H I J K L M N O P Q R S T U V W X Y Z # 

So Cold Bass

(ver. 2) Click to play this song!
Breaking Benjamin
 Rating:
4/5 (4 votes)
                Breaking Benjamin - So cold

bass tab


5-stringed bass
G D A E B

   INTRO
G-|------------------------|------------------------|
D-|------------------------|------------------------|
A-|---3---1h3-55-1-----1h3-|---3---1h3-55-1-1h3-----|
E-|-3---3----------1h3-----|-3---3--------------1---|
B-|------------------------|------------------------|
                                                                              

   ULTIMO
G-|-----------------------------|
D-|-----------------------------|
A-|---3---1h3-5-5-1-5-----------|
E-|-3---3-----------------------|
B-|---------------------4---1---|
                                                                              

   VERSO
G-|------------|
D-|------------|
A-|------------|
E-|------------|
B-|-111111-444-|
                                                                              

   VERSO 2
G-|----------------|--------------------|
D-|----------------|--------------------|
A-|-----3---3----6-|----3---3---33/6666-|
E-|----------------|--------------------|
B-|-111---1---44---|-11---1---1---------|
                                                                              

   CORO
G-|--------------------|----------------------|--------------------------|
D-|--------------------|----------------------|--------------------------|
A-|----------------111-|----------------1-----|--------------------------|
E-|-4444---------------|-4444--------------3--|-4444---------------------|
B-|-----11-11-11-11----|-----11-11-11-11------|------1-11/3-33/4-44/6-66-|
          *A*                                                                 

   BREAK 1         BREAK 2              BREAK 3
G-|---------------|--------------------|-------------------|
D-|---------------|--------------------|-------------------|
A-|---------------|--------------------|-----353-----------|
E-|-444444-666666-|-444444-666666-3333-|-444-----666667777-|
B-|---------------|--------------------|-------------------|
                                               
                               
   MIDDLE   
G-|------------|--------------|------------|---------------------|
D-|------------|--------------|------------|---------------------|
A-|--------3---|----------3---|--------3---|-----------1---------|
E-|-----13-----|-----13-------|-----13-----|-3---1---------3--1--|
B-|-1----------|-1------1-----|-1----------|-------3-------------|
                                                                              

   CORO 2
G-|-------|------------------------------|----------------------------------|
D-|-------|------------------------------|-------65-3-1---------------------|
A-|-------|-----46/9---\-----------1-----|----46----------------------------|
E-|-------|-444-----------------------3--|-44-------------------------------|
B-|-------|-------------11-11-11-11------|--------------1-11/3-33/4-44/6-66-|
   *A* +                                                                      

   FIN
G-|----------------|---|------------------|---|---------------------|
D-|----------------|---|------------------|---|---------------------|
A-|----------------|---|------------------|---|-----------0/15------|
E-|-----------4444-|---|------------------|---|------4--x-----------|
B-|-1111-1-11------|---|-11-44-33-44/9999-|---|-1--x----------------|
                    +                      +                         

Mando salutos Al Franz Niztaussh de QB 2004, este cuate se ha hecho pues su equipo de futsal
y cuando han jugado contra mi equipo nos han dado a lo taaaara, goleada siempre ha sido.
se me han perdido hasta mis guantes de la emocion.

doky2007         
            
Submit corrections

↑ Back to top | Tablatures and chords for acoustic guitar and electric guitar, ukulele, drums are parodies/interpretations of the original songs. You may use it for private study, scholarship, research or language learning purposes only