» » »

Breaking Benjamin - Forget It Bass

Artists:  A B C D E F G H I J K L M N O P Q R S T U V W X Y Z # 

Forget It Bass

(ver. 2) Click to play this song!
Breaking Benjamin
 Rating:
4/5 (4 votes)


 Forget It lessons Tabs too difficult? Try these video lessons and learn fast
 
                (0:31)
G||-----------------------------------------------------------------||
D||-----------------------------------------------------------------||
A||-----------------------------------------------------------------||
D||-2-2-2-2-2-2-2-2-2-2-2-2-2-2-2-2/6-6-6-6-6-6-6-6-6-6-6-6-6-6-6-6-||

G||------------------------------------------------------------------||
D||------------------------------------------------------------------||
A||-4-4-4-4-4-4-4-4-4-4-4-4-4-4-4-4-5-5-5-5-5-5-5-5-5-5-5-5-5-5-5-5--||
D||------------------------------------------------------------------||


(0:48)
G||-----------------------------------------------------------------||
D||-----------------------------------------------------------------||
A||-----------------------------------------------------------------||
D||-2-2-2-2-2-2-2-2-2-2-2-2-2-2-2-2/6-6-6-6-6-6-6-6-6-6-6-6-6-6-6-6-||

G||-----------------------------------||
D||-----------------------------------||
A||-4-4-4-4-4-4-4-4-4-0-0-0-0-2-2-2-2-||
D||-----------------------------------||


(1:00)
G||-----------------------------------------------------------------||
D||-----------------------------------------------------------------||
A||-----------------------------------------------------------------||
D||-2-2-2-2-2-2-2-2-2-2-2-2-2-2-2-2/6-6-6-6-6-6-6-6-6-6-6-6-6-6-6-6-||

G||-----------------------------------------------------------------||
D||-----------------------------------------------------------------||
A||-4-4-4-4-4-4-4-4-4-4-4-4-4-4-4-4-0-0-0-0-0-0-0-0-0-0-0-0-0-0-0-0-||
D||-----------------------------------------------------------------||


(1:16)
G||-----------------------------------------------------------------||
D||-----------------------------------------------------------------||
A||-----------------------------------------------------------------||
D||-3-3-3-3-3-3-3-3-3-3-3-3-3-3-3-3/7-7-7-7-7-7-7-7-7-7-7-7-7-7-7-7-||

G||-----------------------------------------------------------------||
D||-----------------------------------------------------------------||
A||-5-5-5-5-5-5-5-5-5-5-5-5-5-5-5-5-6-6-6-6-6-6-6-6-6-6-6-6-6-6-6-6-||
D||-----------------------------------------------------------------||


(1:32)
G||-----------------------------------------------------------------||
D||-----------------------------------------------------------------||
A||-----------------------------------------------------------------||
D||-4-4-4-4-4-4-4-4-4-4-4-4-4-4-4-4/8-8-8-8-8-8-8-8-8-8-8-8-8-8-8-8-||

G||-----------------------------------------------------------------||
D||-----------------------------------------------------------------||
A||-6-6-6-6-6-6-6-6-6-6-6-6-6-6-6-6/2-2-2-2-2-2-2-2-2-2-2-2-2-2-2-2-||
D||-----------------------------------------------------------------|| -->that part x2


(2:04)
G||-----------------------------------------------------------------||
D||-----------------------------------------------------------------||
A||-----------------------------------------------------------------||
D||-5-5-5-5-5-5-5-5-5-5-5-5-5-5-5-5/9-9-9-9-9-9-9-9-9-9-9-9-9-9-9-9-||

G||-----------------------------------------------------------------||
D||-----------------------------------------------------------------||
A||-7-7-7-7-7-7-7-7-7-7-7-7-7-7-7-7-8-8-8-8-8-8-8-8-8-8-8-8-8-8-8-8-||
D||-----------------------------------------------------------------||


(2:20)
G||---------------------------------------------------------------------------------||
D||---------------------------------------------------------------------------------||
A||---------------------------------------------------------------------------------||
D||-6-6-6-6-6-6-6-6-6-6-6-6-6-6-6-6/10-10-10-10-10-10-10-10-10-10-10-10-10-10-10-10-||

G||----------------------------------------------------------------------||
D||----------------------------------------------------------------------||
A||-8-8-8-8-8-8-8-8-8-8-11-11-10-10-11-10/4-4-4-4-4-4-4-4-4-4-4-4-4-4-4-4||
D|-----------------------------------------------------------------------||
-->that part x3


(3:07)
G||---------------------------------------------------------------------------------||
D||---------------------------------------------------------------------------------||
A||---------------------------------------------------------------------------------||
D||-6-6-6-6-6-6-6-6-6-6-6-6-6-6-6-6/10-10-10-10-10-10-10-10-10-10-10-10-10-10-10-10-||

G||---------------------------------------------------------------------------------||
D||---------------------------------------------------------------------------------||
A||-8-8-8-8-8-8-8-8-8-8-11-11-10-10-11-10/-4-4-4-4-4-4-4-4-4-4--4-4-3-3-4-3-4-4-----||
D||------------------------------------------------------------------------------6~-||
            
Submit corrections



        Forget It lessons Hard to play? Try these video lessons and learn fast Forget It lessons
        
↑ Back to top | Tablatures and chords for acoustic guitar and electric guitar, ukulele, drums are parodies/interpretations of the original songs. You may use it for private study, scholarship, research or language learning purposes only