» » »

Brand New - Jesus Christ Acoustic Tabs

Artists:  A B C D E F G H I J K L M N O P Q R S T U V W X Y Z # 

Jesus Christ Acoustic Tabs

(ver. 1) Click to play this song!
Brand New
 Rating:
2.8/5 (26 votes)

 Jesus Christ Acoustic  lessons Tabs too difficult? Try these video lessons and learn fast
 
                Tuning: Bm

For the verses and through the second guitar solo:
e|-----------------------------------------------------------------|
B|-----------------------------------------------------------------|
G|-----2-------2-------2-------2-------2-------2-------2-------2---|
D|---0---0---0---0---0---0---0---0---0---0---0---0---0---0---0---0-|
A|-2-------2-------2-------2-------0-------0-------0-------0-------|
E|-----------------------------------------------------------------|

After the second guitar solo ("I know you're coming in the night like a thief"...):
e|-----------------------------------------------------------------|
B|-----------------------------------------------------------------|
G|-----2-------2-------2-------2-------2-------2-------2-------2---| x 3
D|---0---0---0---0---0---0---0---0---0---0---0---0---0---0---0---0-|
A|---------------------------------2-------2-------2-------2-------|
E|-3-------3-------3-------3---------------------------------------|

("I know you're coming for the people like me"...)
e|-----------------------------------------------------------------|
B|-----------------------------------------------------------------|
G|-----2-------2-------2-------2-------2-------2-------2-------2---| x 3
D|---0---0---0---0---0---0---0---0---0---0---0---0---0---0---0---0-|
A|---------------------------------2-------2-------0-------0-------|
E|-3-------3-------3-------3---------------------------------------|            
Submit corrections


        Jesus Christ Acoustic  lessons Hard to play? Try these video lessons and learn fast Jesus Christ Acoustic  lessons
        
↑ Back to top | Tablatures and chords for acoustic guitar and electric guitar, ukulele, drums are parodies/interpretations of the original songs. You may use it for private study, scholarship, research or language learning purposes only