» » »

Brand New - Bed Bass

Artists:  A B C D E F G H I J K L M N O P Q R S T U V W X Y Z # 

Bed Bass

(ver. 2) Click to play this song!
Brand New
 Rating:
4/5 (4 votes)


 Bed lessons Tabs too difficult? Try these video lessons and learn fast
 
                
In all song it`s 10 not 1-0

Verse
G|----------------------------------------|
D|----------------------------------------|
A|-----------5--7910~~-5-5-5-5--52-2-2----|
E|-0-0-0-0-0---------------------------35-|

G|--------------------------------------|
D|--------------------------------------|
A|-------------107~~-5-5-5-5--52-2-2----|
E|-0-0-0-0-0-0-----------------------33-|

Chorus
G|-----------------------------------------------------------------|
D|-----------------------------------------------------------------|
A|----------------------55-3-3-55-77-/-----------------55-3-3------|
E|-0-0-00-03-3-377-5-5-5--------------0-033-3-377-5-5-5-------533--|

Bridge
G|----------------------------------|
D|----------------------------------|
A|-----7----57--5710~~-5-5--2-2-----|
E|-0-0--0-0----------------------53-|

Verse
G|---------------------------------|
D|---------------------------------|
A|-----7----57--572~~-5-5--2-2-----|
E|-0-0--0-0---------------------53-|

G|----------------------------------|
D|----------------------------------|
A|-----7----57--5710~~-5-5--2-2-----|
E|-0-0--0-0----------------------53-|

Chorus
G|-----------------------------------------------------------------|
D|-----------------------------------------------------------------|
A|----------------------55-3-3-55-77-/-----------------55-3-3------|
E|-0-0-00-03-3-377-5-5-5--------------0-033-3-377-5-5-5-------533--|

Rest

Interlude
G|-----------------------------------------------------------|
D|-----------------------------------------------------------|
A|-------------------------------3-33-3------------------3~~-|
E|-3-33-35-55-50-00-00-00-05-55-5------0-00-03-33-35-55-5----|

Verse
G|---------------------------------|
D|---------------------------------|
A|-----7----57--572~~-5-5--2-2-----|
E|-0-0--0-0---------------------53-|

G|----------------------------------|
D|----------------------------------|
A|-----7----57--5710~~-5-5--2-2-----|
E|-0-0--0-0----------------------53-|

Chorus
G|-----------------------------------------------------------------|
D|-----------------------------------------------------------------|
A|----------------------55-3-3-55-77-/-----------------55-3-3------|
E|-0-0-00-03-3-377-5-5-5--------------0-033-3-377-5-5-5-------533--|

Ending     x4
G|----------|
D|----------|
A|----------|
E|-0-0-3333-|

G|---|
D|---|
A|---|
E|-0-|

please rate it!
            
Submit corrections



        Bed lessons Hard to play? Try these video lessons and learn fast Bed lessons
        
↑ Back to top | Tablatures and chords for acoustic guitar and electric guitar, ukulele, drums are parodies/interpretations of the original songs. You may use it for private study, scholarship, research or language learning purposes only