» » »

Boys Like Girls - Great Escape Bass

Artists:  A B C D E F G H I J K L M N O P Q R S T U V W X Y Z # 

Great Escape Bass

(ver. 1) Click to play this song!
Boys Like Girls
 Rating:
4/5 (9 votes)

 Great Escape lessons Tabs too difficult? Try these video lessons and learn fast
 
                I tried to find my friend the right tabs for this song, and couldn't, so I figured I would
post some.

During the guitar intro about half way through when the drums kick in, continue to play 
or the "E" note

"Paper bags and plastic hearts..."
(No Bass)

"It's goodbye.."
G---------------------------|
D---------------------------|
A-4444444444444-000000000000
E---------------------------

"Let's get drunk..."
G------------------------------------|
D------------------------------------|
A------------22222222222-0-----------|~~0(stop)
E-00000000000------------------------|

Chorus
"Throw it away.."

G-------------------------------------|
D-------------------------------------|
A-44444444-00000000----------22222222-|
E-------------------000000000---------|

"Watch it burn"
G--------------------------------|
D--------------------------------|
A--------------------------------|
E-2222222-4444444-5555555-7------|(stop)

Intro
G----------------|
D----------------|
A-777777777777777 (continue until singing comes back in)
E----------------

"Tonight let's change our lives..."
(no bass)

"We'll cry..."
G---------------------------|
D---------------------------|
A-4444444444444-000000000000
E---------------------------

"We'll scream loud..."
G------------------------------------|
D------------------------------------|
A------------22222222222-0-----------|~~0(stop)
E-00000000000------------------------|

Chorus
"Throw it away.."

G-------------------------------------|
D-------------------------------------|
A-44444444-00000000----------22222222-|
E-------------------000000000---------|

"Watch it burn"
G--------------------------------|
D--------------------------------|
A--------------------------------|
E-2222222-4444444-5555555-7------|(stop)

"All the wasted time..."

G--------------------------------------------|
D--------------------------------------------|
A--------------------------------------------|
E-5555555555-44444444444-222222222-777777777-|

Guitar Solo
G-------------------------------------|
D-------------------------------------|
A-44444444-00000000----------22222222-|
E-------------------000000000---------|

Quiet Chorus
"Throw it away"
G-------------------|
D-------------------|
A-4~~~---------2~~~-|
E------5~~~0~~~-----|

Chorus
"Throw it away.."

G-------------------------------------|
D-------------------------------------|
A-44444444-00000000----------22222222-|
E-------------------000000000---------|

"Watch it burn"
G--------------------------------|
D--------------------------------|
A--------------------------------|
E-2222222-4444444-5555555-7------|(stop)

Intro

Intro
G----------------|
D----------------|
A-777777777777777 (stop a little bit before the guitar ends)
E----------------

Well, theres the typical tabs, it's pretty easy and I'm sure its 100% right. any 
            
Submit corrections


        Great Escape lessons Hard to play? Try these video lessons and learn fast Great Escape lessons
        
↑ Back to top | Tablatures and chords for acoustic guitar and electric guitar, ukulele, drums are parodies/interpretations of the original songs. You may use it for private study, scholarship, research or language learning purposes only