» » »

Boys Like Girls - Heroheroine Tabs

Artists:  A B C D E F G H I J K L M N O P Q R S T U V W X Y Z # 

Heroheroine Tabs

(ver. 2) Click to play this song!
Boys Like Girls
 Rating:
4/5 (4 votes)

 Heroheroine lessons Tabs too difficult? Try these video lessons and learn fast
 
                this is just a little thing I'm gonna do cause I'm bored. K?

palm mute - *
let ring - ~

intro:
e-  ------0-----------              <-----|do that up until the prechorus
b-  --0-----------------------------------|
g-  5---5---------------------------------|
d-  --------------------------------------|
a-  --------------------------------------|
E-  --------------------------------------|


prechorus:
e-  --------------------------------------|
b-  --------------------------------------|
g-  --------------------------------------|
d-  5-5-555-7-77-7777-3-3-333-3-33-3333---|
a-  5-5-555-7-77-7777-3-3-333-3-33-3333---|
E-  3-3-333-5-55-5555-1-1-111-1-11-1111---|

e-  --------------------------------------|
b-  --------------------------------------|
g-  --------------------------------------|
d-  5-5-555-7-77-7777-3~------------------|
a-  5-5-555-7-77-7777-3~------------------|
E-  3-3-333-5-55-5555-1~------------------|


1st chorus:
e-  ------0-----------|
b-  --0---------------|
g-  5---5-------------|
d-  ------------------|
a-  ------------------|
E-  ------------------|


verse:
e-  ------0-----------------|      un-palm muted for the first half of the verse,
b-  --0---------------------|      palm muted for the last half.
g-  5---5-------------------|
d-  ------------------------|
a-  ------------------------|
E-  ------------------------|


prechorus:
e-  --------------------------------------|
b-  --------------------------------------|
g-  --------------------------------------|
d-  5-5-555-7-77-7777-3-3-333-3-33-3333---|
a-  5-5-555-7-77-7777-3-3-333-3-33-3333---|
E-  3-3-333-5-55-5555-1-1-111-1-11-1111---|

e-  --------------------------------------|
b-  --------------------------------------|
g-  --------------------------------------|
d-  5-5-555-7-77-7777-3~------------------|
a-  5-5-555-7-77-7777-3~------------------|
E-  3-3-333-5-55-5555-1~------------------|


2nd chorus:
e-  ------0-------------------------|
b-  --0---------------          <---|for a small bit
g-  5---5---------------------------|
d-  --------------------------------|
a-  --------------------------------|
E-  --------------------------------|

e-  ----------------------------------|
b-  ----------------------------------|
g-  ----------------------------------|
d-  33-33-33-33-3333-33-33-33-33-3333-|
a-  33-33-33-33-3333-33-33-33-33-3333-|
E-  11-11-11-11-1111-11-11-11-11-1111-|

e-  -----------------------------------|
b-  -----------------------------------|
g-  -----------------------------------|
d-  7-7-7-7-7-7-7-7-5-5-5-5-5-5-5-5----|
a-  7-7-7-7-7-7-7-7-5-5-5-5-5-5-5-5----|
E-  5-5-5-5-5-5-5-5-3-3-3-3-3-3-3-3----|

e-  -------------------------------------|
b-  -------------------------------------|
g-  ------------------------------******-|
d-  33-33-33-33-3333-33-33-33-33-3333333-|
a-  33-33-33-33-3333-33-33-33-33-3333333-|
E-  11-11-11-11-1111-11-11-11-11-1111111-|


bridge:
e-  -------------------------------------------|
b-  -------------------------------------------|
g-  --x32-----x32-----x16-----x16-----x32------|
d-  7-------3-------7-------5-------3----------|
a-  7-------3-------7-------5-------3----------|
E-  5-------1-------5-------3-------1----------|


prechorus:

silence

chorus:

e-  -----------------------------------|
b-  -----------------------------------|
g-  -----------------------------------|
d-  7-7-7-7-7-7-7-7-5-5-5-5-5-5-5-5----|
a-  7-7-7-7-7-7-7-7-5-5-5-5-5-5-5-5----|
E-  5-5-5-5-5-5-5-5-3-3-3-3-3-3-3-3----|

e-  ----------------------------------|
b-  ----------------------------------|
g-  ----------------------------------|
d-  33-33-33-33-3333-33-33-33-33-3333-|
a-  33-33-33-33-3333-33-33-33-33-3333-|
E-  11-11-11-11-1111-11-11-11-11-1111-|

e-  ---------------------------|
b-  ---------------------------|
g-  --x16-----x16-----x32------|
d-  7-------5-------3----------|
a-  7-------5-------3----------|
E-  5-------3-------1----------|


outro:
e-  --------|
b-  --------|
g-  --------|
d-  3~------|
a-  3~------|
E-  1~------|


this is just the rhythm but i hope you enjoy it. my girlfriend wanted me to learn the 
so i thought "might as well kill two birds with one stone" and i tabbed it on here.

i love her to death :):)

good luck
            
Submit corrections


        Heroheroine lessons Hard to play? Try these video lessons and learn fast Heroheroine lessons
        
↑ Back to top | Tablatures and chords for acoustic guitar and electric guitar, ukulele, drums are parodies/interpretations of the original songs. You may use it for private study, scholarship, research or language learning purposes only