» » »

Bowling For Soup - World Falling Apart Tabs

Artists:  A B C D E F G H I J K L M N O P Q R S T U V W X Y Z # 

World Falling Apart Tabs

(ver. 1) Click to play this song!
Bowling For Soup
 Rating:
4/5 (4 votes)

 World Falling Apart lessons Tabs too difficult? Try these video lessons and learn fast
 
                


HI! ENJOY. IAM SURE THIS TAB IS 100%.PLEASE VOTE! I AM I3!

* MEANS PALM MUTE!

/ MEANS SLIDE
 
b MEANS FLAT

SONG; WORLD FALLING APART   BY BOWLING FOR SOUP

INTRO.      NOTE; THATS NOT THE EXACT AMOUNT OF TIMES  
            U PLAY THE CHORDS!!
       B       D         E       
     E----------------------------
     B----------------------------
     G-4-4-4-4--7-7-7-7--9-9-9-9--
     D-XXXXXXX--XXXXXXX--XXXXXXX--
     A-2-2-2-2--5-5-5-5--7-7-7-7--
     E---------------------------- X2

VERSE 1

      A        D             E        A       E  A           
     E-------------------------------------------------------
     B-------------------------------------------------------
     G----------7-7-7-7------9-9-9-9-----------9-------------
     D-7-7-7-7--7-7-7-7------9-9-9-9--7-7-7-7--9--7-7-7-7-7--
     A-7-7-7-7--5-5-5-5------7-7-7-7--7-7-7-7--7--7-7-7-7-7--
     E-5-5-5-5-----------X 2----------5-5-5-5-----5-5-5-5-5--
       * * * *  * * * *      * * * *  * * * *       * * * *
 
     [DRUMS START HERE!]
      D         E       D
     E----------------------------
     B----------------------------
     G-7-7-7-7--9-9-9-9--7-7-7-7--
     D-7-7-7-7--9-9-9-9--7-7-7-7--
     A-5-5-5-5--7-7-7-7--5-5-5-5--
     E----------------------------
       * * * *  * * * *  * * * *

PRE CHORUS

      B        E
     E------------------
     B------------------
     G-4----------------
     D-4--------2-2-2-2-
     A-2-- HOLD-2-2-2-2-
     E----------0-0-0-0-

CHORUS

      A        D        A        D       D Db D Db  E  A
     E-----------------------------------------------------------
     B-----------------------------------------------------------
     G----------7-7-7-7-----------7-7-7-7--7/6--7/6--9-----------
     D-7-7-7-7--7-7-7-7--7-7-7-7--7-7-7-7--7/6--7/6--9--7-7-7-7--
     A-7-7-7-7--5-5-5-5--7-7-7-7--5-5-5-5--5/4--5/4--7--7-7-7-7--
     E-5-5-5-5-----------5-5-5-5------------------------5-5-5-5--
     
     
     E---------------------------
     B---------------------------
     G-7-7-7-7--4----------------
     D-7-7-7-7--4--------5-5-5-5-
     A-5-5-5-5--2-HOLD B-5-5-5-5-
     E-------------------3-3-3-3-
                         * * * *
                        
VERSE AGAIN BUT GUITAR 2 PLAYS ASWELL.IT IS THE SAME CHORDS AS GUITAR 1
BUT ITS NOT PALM MUTED!

CHORUS

STRAIGHT AFTER THAT; INTERLUDE PART 1

      A         D        E
     E----------------------------
     B----------------------------
     G----------7-7-7-7--9-9-9-9--
     D-7-7-7-7--7-7-7-7--9-9-9-9--
     A-7-7-7-7--5-5-5-5--7-7-7-7--
     E-5-5-5-5--------------------                         

STRAIGHT AFTER THAT; INTERLUDE PART 2

      D         E      A   G A  A  G A  D         E
     E-----------------------------------------------------
     B-----------------------------------------------------
     G-7-7-7-7--9-9-9-9------------------7-7-7-7--9-9-9-9--
     D-7-7-7-7--9-9-9-9--7--5/7--7--5/7--7-7-7-7--9-9-9-9--
     A-5-5-5-5--7-7-7-7--7--5/7--7--5/7--5-5-5-5--7-7-7-7--
     E-------------------5--3/5--5--3/5--------------------

      A        F#       E
     E---------------------------------
     B---------------------------------
     G---------------------------------
     D-7-7-7-7--4-4-4-4--2-2-2-2-2-2-2-
     A-7-7-7-7--4-4-4-4--2-2-2-2-2-2-2-
     E-5-5-5-5--2-2-2-2--0-0-0-0-0-0-0-
                         * * * * * * *

SOLO! GUITAR 1.[ ITS A VERY EASY SOLO ] GUITAR 2 PLAYS THE CHORDS ALONG
                                        THE TOP OF THE SOLO!

       A          D            A          E
     E---------------------------------------------
     B---------------------------------------------
     G-9-7-6---6-7-9-7-6---6-7-9-7-6---6-7-9-7-6---
     D-------7-----------7-----------7-----------9-
     A---------------------------------------------
     E---------------------------------------------

CHORUS [ THIS CHORUS IS PLAYED DIFFERENT! LIKE SO; ]

      B         E       B        E        E Eb E Eb F#
     E---------------------------------------------------
     B---------------------------------------------------
     G----------9-9-9-9-----------9-9-9-9--9/8--9/8--11--
     D-9-9-9-9--9-9-9-9--9-9-9-9--9-9-9-9--9/8--9/8--11--
     A-9-9-9-9--7-7-7-7--9-9-9-9--7-7-7-7--7/6--7/6--9---
     E-7-7-7-7-----------7-7-7-7-------------------------

      B        E
     E-------------------
     B-------------------
     G----------9-9-9-9--
     D-9-9-9-9--9-9-9-9--
     A-9-9-9-9--7-7-7-7--
     E-7-7-7-7-----------

OUTRO

       Db       A         B
      E----------------------------
      B----------------------------
      G-6-6-6-6--------------------
      D-6-6-6-6--7-7-7-7--9-9-9-9--
      A-4-4-4-4--7-7-7-7--9-9-9-9--
      E----------5-5-5-5--7-7-7-7-- X2

LAST 2 CHORDS


       E-----------------
       B-----------------
       G-6---------------
       D-6-------7-------
       A-4--HOLD-7--HOLD-
       E---------5-------

THATS IT. PLEASE RATE IT HAS TAKEN ME 4 HOURS TO TAB! 

                             I DONT WANNA ROCK,DUMB,

ENJOY!
            
Submit corrections


        World Falling Apart lessons Hard to play? Try these video lessons and learn fast World Falling Apart lessons
        
↑ Back to top | Tablatures and chords for acoustic guitar and electric guitar, ukulele, drums are parodies/interpretations of the original songs. You may use it for private study, scholarship, research or language learning purposes only