» » »

Bowling For Soup - Girl All The Bad Guys Want Tabs

Artists:  A B C D E F G H I J K L M N O P Q R S T U V W X Y Z # 

Girl All The Bad Guys Want Tabs

(ver. 1) Click to play this song!
Bowling For Soup
 Rating:
4/5 (4 votes)

 Girl All The Bad Guys Want lessons Tabs too difficult? Try these video lessons and learn fast
 
                this is the tab for bowling for soup - girl all the bad guys want (this should be perfect)

/ = slide
x3
---------------------------------------------
---------------------------------------------
---------------------------------------------
---------------------------------------------
----5-4-0----5-4-0----5-4-0---2-0------------
--0--------4--------5--------------5-4-------

x4
-------------------------------
-------------------------------
-------------------------------
-00000000--555555-777777-------
-00000000--555555-777777-------
-00000000--555555-777777-------

x1
------------------------------------------------------
------------------------------------------------------
-444444--222222---------------------------------------
-444444--222222--000000--555555--222222--555555-------
-222222--000000--000000--555555--222222--555555-------
-----------------000000--555555--222222--555555-------

x1
------------------------------
------------------------------
------------------------------
--0-0---2-2---4-4---5-5-------
--0-0---2-2---4-4---5-5-------
--0-0---2-2---4-4---5-5-------

x1
-------------------------------------------------------------
-------------------------------------------------------------
-------------------------------------------------------------
-22222222-44444444-55555555-44444444-55555555-77777777-------
-22222222-44444444-55555555-44444444-55555555-77777777-------
-22222222-44444444-55555555-44444444-55555555-77777777-------

x2  
---------------------------------------------
---------------------------------------------
---------------------------------------------
---------------------------------------------
----5-4-0----5-4-0----5-4-0---2-0------------
--0--------4--------5--------------5-4-------

x4
-------------------------------
-------------------------------
-------------------------------
-00000000--555555-777777-------
-00000000--555555-777777-------
-00000000--555555-777777-------

x1  
------------------------------------------------------
------------------------------------------------------
-444444--222222---------------------------------------
-444444--222222--000000--555555--222222--555555-------
-222222--000000--000000--555555--222222--555555-------
-----------------000000--555555--222222--555555-------

x1
-----------------------------
-----------------------------
-----------------------------
-0-0---2-2---4-4---5-5-------
-0-0---2-2---4-4---5-5-------
-0-0---2-2---4-4---5-5-------

x1
------------------------------------------------
------------------------------------------------
------------------------------------------------
-00-0--00-0--22-2--22-2--44-4--44-4--55-5-------
-00-0--00-0--22-2--22-2--44-4--44-4--55-5-------
-00-0--00-0--22-2--22-2--44-4--44-4--55-5-------

x1     
-------------------------------------------------------------
-------------------------------------------------------------
-------------------------------------------------------------
-22222222-44444444-55555555-44444444-55555555-77777777-------
-22222222-44444444-55555555-44444444-55555555-77777777-------
-22222222-44444444-55555555-44444444-55555555-77777777-------

x4  
---------------------------------------------
---------------------------------------------
---------------------------------------------
---------------------------------------------
----5-4-0----5-4-0----5-4-0---2-0------------
--0--------4--------5--------------5-4-------

x1
-4-4-4-4-4-4-2-2-2-2-2-2-----------------------4-4-4-4-4-4-2-2-2-2-2-2-------------
-4-4-4-4-4-4-2-2-2-2-2-2--5-5-5-5-5-5-5-5-5-5--4-4-4-4-4-4-2-2-2-2-2-2-5-/7--7777--
-2-2-2-2-2-2-0-0-0-0-0-0--5-5-5-5-5-5-5-5-5-5--2-2-2-2-2-2-0-0-0-0-0-0-5-/7--7777--
--------------------------5-5-5-5-5-5-5-5-5-5--------------------------5-/7--7777--

x1(this bit is the silent solo that starts after "turntables in my eyes" is sung)
-------------------------------------------------------
-------------------------------------------------------
---7---7------9---9------11---11------12----12---------
--0-0-0-0----0-0-0-0----0--0-0--0----0--0--0---0-------
-5---5------7---7------9----9------10----10------------
-------------------------------------------------------

x1
-------------------------------------------------------------
-------------------------------------------------------------
-------------------------------------------------------------
-22222222-44444444-55555555-44444444-55555555-77777777-------
-22222222-44444444-55555555-44444444-55555555-77777777-------
-22222222-44444444-55555555-44444444-55555555-77777777-------

x9
-----------------------------------------------
-----------------------------------------------
-----------------------------------------------
-----------------------------------------------
-----5-4-0----5-4-0----5-4-0---2-0-------------
---0--------4--------5--------------5-4--------

there you go hope you like it :)
            
Submit corrections


        Girl All The Bad Guys Want lessons Hard to play? Try these video lessons and learn fast Girl All The Bad Guys Want lessons
        
↑ Back to top | Tablatures and chords for acoustic guitar and electric guitar, ukulele, drums are parodies/interpretations of the original songs. You may use it for private study, scholarship, research or language learning purposes only