Home » B » Bomb The Music Industry »

Bomb The Music Industry - No Rest For The Whiny Tabs

Artists:  A B C D E F G H I J K L M N O P Q R S T U V W X Y Z # 

No Rest For The Whiny Tabs

(ver. 1) Click to play this song!
Bomb The Music Industry
 Rating:
2.6/5 (25 votes)
                Tuning: Standard

Intro (0:00-0:26)

   G                                             Em

e|-3-3-------------------3-3---------------------3-3-----3--5h3------3-3-----3--5h3------|
B|-3-3-------------------3-3---------------------5-5--3h5h3-----5h3--5-5--3h5h3-----5h3--|
G|-4-4----------2h0------4-4----------2h0--------4-4-----------------4-4-----------------|
D|-5-5--0h2h5p2-----2h0--5-5--0h2h5p2-----2h0--------------------------------------------|
A|---------------------------------------------------------------------------------------|
E|---------------------------------------------------------------------------------------| X2

   B                     C

e|-2-2-------------------3---------------------------------------------------|
B|-4-4--4h5-4h5-4h0-2h0--3----1h3-1p0-1p0------------------------------------|
G|-4-4-------------------3----------------2p0--------------------------------|
D|-4-4-------------------5---------------------------------------------------|
A|---------------------------------------------------------------------------|
E|---------------------------------------------------------------------------|

Verse ~(0:26-1:28)

   G                                             Em
      

e|-3-3-------------------3-3---------------------3-3-----3--5h3------3-3-----3--5h3------|
B|-3-3-------------------3-3---------------------5-5--3h5h3-----5h3--5-5--3h5h3-----5h3--|
G|-4-4----------2h0------4-4----------2h0--------4-4-----------------4-4-----------------|
D|-5-5--0h2h5p2-----2h0--5-5--0h2h5p2-----2h0--------------------------------------------|
A|---------------------------------------------------------------------------------------|
E|---------------------------------------------------------------------------------------| X2

   B                     C

e|-2-2-------------------3-3-------------------------------------------------|
B|-4-4--4h5-4h5-4h0-2h0--3-3---1h3-1p0-1p0-----------------------------------|
G|-4-4-------------------3-3---------------2p0-------------------------------|
D|-4-4-------------------5-5-------------------------------------------------|
A|---------------------------------------------------------------------------|
E|---------------------------------------------------------------------------|

   G                                             Em

e|-----------------------------------3-3-----3--5h3------3-3-----3--5h3------|
B|-----------------------------------5-5--3h5h3-----5h3--5-5--3h5h3-----5h3--|
G|-----------------------------------4-4-----------------4-4-----------------|
D|-5-------------------------------------------------------------------------|
A|-5-------------------------------------------------------------------------|
E|-3-x32---------------------------------------------------------------------|

    G               Em            G               Em            B       C   D
    Ska offbeats
e|--3-3-3-3-3-3-3-3-3-3-3-3-3-3-3-3-3-3-3-3-3-3-3-3-3-3-3-3-3-3-2-2-2-2/3-3/5-5---|
B|--3-3-3-3-3-3-3-3-5-5-5-5-5-5-5-3-3-3-3-3-3-3-3-5-5-5-5-5-5-5-4-4-4-4/5-5/7-7---|
G|--4-4-4-4-4-4-4-4-4-4-4-4-4-4-4-4-4-4-4-4-4-4-4-4-4-4-4-4-4-4-4-4-4-4/5-5/7-7---|
D|--5-5-5-5-5-5-5-5---------------5-5-5-5-5-5-5-5---------------4-4-4-4/5-5/7-7---|
A|--------------------------------------------------------------------------------|
E|--------------------------------------------------------------------------------|

Chorus (1:28-1:38)

   C   G   C   G   C   G   D        C   G   C   G   C   G   D

e|-------------------------2-2h3p2--------------------------2-2h3p2---------|
B|-------------------------3-3-3-3--------------------------3-3-3-3---------|
G|-5-5-----5-5-----5-5-----2-2-2-2--5-5-----5-5-----5-5-----2-2-2-2---------|
D|-5-5-5-5-5-5-5-5-5-5-5-5----------5-5-5-5-5-5-5-5-5-5-5-5-----------------|
A|-3-3-5-5-3-3-5-5-3-3-5-5----------3-3-5-5-3-3-5-5-3-3-5-5-----------------|
E|-----3-3-----3-3-----3-3--------------3-3-----3-3-----3-3-----------------|

   Em              F

e|---------------------------------------------------------------------------|
B|---------------------------------------------------------------------------|
G|---------------------------------------------------------------------------|
D|-2-2-2-2-2-2-2-2-3-3-3-3-3-3-3-3-------------------------------------------|
A|-2-2-2-2-2-2-2-2-3-3-3-3-3-3-3-3-------------------------------------------|
E|-0-0-0-0-0-0-0-0-1-1-1-1-1-1-1-1-------------------------------------------|

Bridge (1:38-1:54)

   G

e|-3-3-------------------3-3----------------3-3-3-3-3-3-3-3-3-3-3-3-3-3-3-3--|
B|-3-3-------------------3-3----------------3-3-3-3-3-3-3-3-3-3-3-3-3-3-3-3--|
G|-4-4----------2h0------4-4----------0-2-0-4-4-4-4-4-4-4-4-4-4-4-4-4-4-4-4--|
D|-5-5--0h2h5p2-----2h0--5-5--0-2-5-2-------5-5-5-5-5-5-5-5-5-5-5-5-5-5-5-5--|
A|---------------------------------------------------------------------------|
E|---------------------------------------------------------------------------|



e|-----3-3---5p3---5p3-----3-------------------------------------------------|
B|-3h5--5--5----5p3---5p3--3-------------------------------------------------|
G|-------------------------4-------------------------------------------------|
D|-------------------------5-------------------------------------------------|
A|---------------------------------------------------------------------------|
E|---------------------------------------------------------------------------|

Verse (1:54-2:12)

   C   G                     C   G                       Em
   Ska offbeats
e|-3-3-3-3-------------------3-3-3-3------------------3-3-3-3-----3--5h3------3-3-3-3-----3--5h3----|
B|-5-5-3-3-------------------5-5-3-3------------------5-5-5-5--3h5h3-----5h3--5-5-5-5--3h5h3-----5h3|
G|-5-5-4-4----------2h0------5-5-4-4----------2h0-----4-4-4-4-----------------4-4-4-4---------------|
D|-5-5-5-5--0h2h5p2-----2h0--5-5-5-5--0h2h5p2-----2h0-----------------------------------------------|
A|--------------------------------------------------------------------------------------------------|
E|--------------------------------------------------------------------------------------------------| 
X2
   B

e|-2-2-2-2--------------------------------------------------------------------|
B|-4-4-4-4--------------------------------------------------------------------|
G|-4-4-4-4-4-4-4-4------------------------------------------------------------|
D|-4-4-4-4-4-4-4-4------------------------------------------------------------|
A|---------2-2-2-2------------------------------------------------------------|
E|----------------------------------------------------------------------------|

Chorus (2:12-2:20)

   C   G   C   G   C   G   D        C   G   C   G   C   G   D

e|-------------------------2-2h3p2--------------------------2-2h3p2---------|
B|-------------------------3-3-3-3--------------------------3-3-3-3---------|
G|-5-5-----5-5-----5-5-----2-2-2-2--5-5-----5-5-----5-5-----2-2-2-2---------|
D|-5-5-5-5-5-5-5-5-5-5-5-5----------5-5-5-5-5-5-5-5-5-5-5-5-----------------|
A|-3-3-5-5-3-3-5-5-3-3-5-5----------3-3-5-5-3-3-5-5-3-3-5-5-----------------|
E|-----3-3-----3-3-----3-3--------------3-3-----3-3-----3-3-----------------|

Angry Part (2:20-2:33)

   Em              F               G               A

e|---------------------------------------------------------------------------|
B|---------------------------------------------------------------------------|
G|---------------------------------------------------------------------------|
D|-2-2-2-2-2-2-2-2-3-3-3-3-3-3-3-3-5-5-5-5-5-5-5-5-7-7-7-7-7-7-7-7-----------|
A|-2-2-2-2-2-2-2-2-3-3-3-3-3-3-3-3-5-5-5-5-5-5-5-5-7-7-7-7-7-7-7-7-----------|
E|-0-0-0-0-0-0-0-0-1-1-1-1-1-1-1-1-3-3-3-3-3-3-3-3-5-5-5-5-5-5-5-5-----------| X3

   Em              F              

e|---------------------------------------------------------------------------|
B|---------------------------------------------------------------------------|
G|---------------------------------------------------------------------------|
D|-2-2-2-2-2-2-2-2-3-3-3-3-3-3-3-3-------------------------------------------|
A|-2-2-2-2-2-2-2-2-3-3-3-3-3-3-3-3-------------------------------------------|
E|-0-0-0-0-0-0-0-0-1-1-1-1-1-1-1-1-------------------------------------------|

Sax Solo (2:33-3:01)

   G      G    A    B    C        D        E        F        G

e|----------------------------------------------------------------------------|
B|----------------------------------------------------------------------------|
G|----------------------------------------------------------------------------|
D|-5--------------------------------------------------------------------------|
A|-5------5555-7777-9999-10101010-12121212-14141414-16161616-17171717---------|
E|-3-X32--3333-5555-7777--8-8-8-8-10101010-12121212-14141414-15151515---------|

   G

e|----------------------------------------------------------------------------|
B|----------------------------------------------------------------------------|
G|----------------------------------------------------------------------------|
D|-5------55-77-99-1010-99-55-77-55--55-77-99-1010-99-55-77-55----------------|
A|-5--------------------------------------------------------------------------|
E|-3-X32----------------------------------------------------------------------|

   B      Em    B      Em    B      Em    B

e|--------4------------4------------4----------------------------------------|
B|--------5------------5------------5----------------------------------------|
G|-4------3-X8--4------3-X8--4------3-X8--4----------------------------------|
D|-4------------4------------4------------4----------------------------------|
A|-2-X16--------2-X16--------2-X16--------2-X16------------------------------|
E|---------------------------------------------------------------------------|

Chorus (3:03-3:09)

   C   G   C   G   C   G   D        C   G   C   G   C   G   D

e|-------------------------2-2h3p2--------------------------2-2h3p2---------|
B|-------------------------3-3-3-3--------------------------3-3-3-3---------|
G|-5-5-----5-5-----5-5-----2-2-2-2--5-5-----5-5-----5-5-----2-2-2-2---------|
D|-5-5-5-5-5-5-5-5-5-5-5-5----------5-5-5-5-5-5-5-5-5-5-5-5-----------------|
A|-3-3-5-5-3-3-5-5-3-3-5-5----------3-3-5-5-3-3-5-5-3-3-5-5-----------------|
E|-----3-3-----3-3-----3-3--------------3-3-----3-3-----3-3-----------------|

Angry Part (3:09-3:26)

   Em              F               G               A

e|---------------------------------------------------------------------------|
B|---------------------------------------------------------------------------|
G|---------------------------------------------------------------------------|
D|-2-2-2-2-2-2-2-2-3-3-3-3-3-3-3-3-5-5-5-5-5-5-5-5-7-7-7-7-7-7-7-7-----------|
A|-2-2-2-2-2-2-2-2-3-3-3-3-3-3-3-3-5-5-5-5-5-5-5-5-7-7-7-7-7-7-7-7-----------|
E|-0-0-0-0-0-0-0-0-1-1-1-1-1-1-1-1-3-3-3-3-3-3-3-3-5-5-5-5-5-5-5-5-----------| X3

   Em              F              

e|---------------------------------------------------------------------------|
B|---------------------------------------------------------------------------|
G|---------------------------------------------------------------------------|
D|-2-2-2-2-2-2-2-2-3-3-3-3-3-3-3-3-------------------------------------------|
A|-2-2-2-2-2-2-2-2-3-3-3-3-3-3-3-3-------------------------------------------|
E|-0-0-0-0-0-0-0-0-1-1-1-1-1-1-1-1-------------------------------------------|
               
Submit corrections

↑ Back to top | Tablatures and chords for acoustic guitar and electric guitar, ukulele, drums are parodies/interpretations of the original songs. You may use it for private study, scholarship, research or language learning purposes only