» » »

Bombay Bicycle Club - How Can You Swallow So Much Sleep Bass

Artists:  A B C D E F G H I J K L M N O P Q R S T U V W X Y Z # 

How Can You Swallow So Much Sleep Bass

(ver. 1) Click to play this song!
Bombay Bicycle Club
 Rating:
4/5 (4 votes)


 How Can You Swallow So Much Sleep lessons Tabs too difficult? Try these video lessons and learn fast
 
                -------------------------------------------------------------------------------
         How Can You Swallow So Much Sleep - Bombay Bicycle Club
-------------------------------------------------------------------------------


Tuning: Standard

The bloke on the other tab said he would give a full keg of beer to whoever
completed this tab. Seems legit...

I had a look on a few videos of them playing it live, the bass doesnt 
seem to come in until 1:08, so the first bit is optional I guess.

0:14  (Optional) Fades in:

G|-------------------------------------------------------------------------------|
D|-------------------------------------------------------------------------------|
A|-------------------------------------------------------------------------------|
E|-3(x24)-/8-8-8-8-8-8-8-8\5-5-5-5-5-5-5-5-0-0-0-0-0-0-0-0-----------------------|

G|-------------------------------------------------------------------------------|
D|-------------------------------------------------------------------------------|
A|-------------------------------------------------------------------------------|
E|-1-1-1-1-1-1-1-1/8-8-8-8-8-8-8-8-5-5-5-5-5-5-5-5-3(x16)------------------------|

G|-------------------------------------------------------------------------------|
D|-------------------------------------------------------------------------------|
A|-------------------------------------------------------------------------------|
E|-/8-8-8-8-8-8-8-8\5-5-5-5-5-5-5-5-0-0-0-0-0-0-0-0------------------------------|

G|-------------------------------------------------------------------------------|
D|-------------------------------------------------------------------------------|
A|-------------------------------------------------------------------------------|
E|-1-1-1-1-1-1-1-1/8-8-8-8-8-8-8-8-5-5-5-5-5-5-5-5-3(x16)------------------------|

'Can I wake you up...'

G|-------------------------------------------------------------------------------|
D|-------------------------------------------------------------------------------|
A|-------------------------------------------------------------------------------|
E|-/8-8-8-8-8-8-8-8\5-5-5-5-5-5-5-5-0-0-0-0-0-0-0-0------------------------------|

G|-------------------------------------------------------------------------------|
D|-------------------------------------------------------------------------------|
A|-------------------------------------------------------------------------------|
E|-1-1-1-1-1-1-1-1/8-8-8-8-8-8-8-8-5-5-5-5-5-5-5-5-3(x16)------------------------|

1:08

Repeat until end:

G|-------------------------------------------------------------------------------|
D|-------------------------------------------------------------------------------|
A|-/3--3-3--3-3\0--0-0--0-0/7--7-7--7-7--8--8-8--8-8-----------------------------|
E|-------------------------------------------------------------------------------|

G|-------------------------------------------------------------------------------|
D|-------------------------------------------------------------------------------|
A|-/3--3-3--3-3\0--0-0--0-0/10--10-10--10-10--10--10-10--10-10-------------------|
E|-------------------------------------------------------------------------------|

G|-------------------------------------------------------------------------------|
D|-------------------------------------------------------------------------------|
A|-/3--3-3--3-3\0--0-0--0-0/7--7-7--7-7--8--8-8--8-8-----------------------------|
E|-------------------------------------------------------------------------------|

G|-------------------------------------------------------------------------------|
D|-------------------------------------------12-12-12----12-12-12----12-12-12----|
A|-/3--3-3--3-3\0--0-0--0-0/10--10-10--10-10----------10----------10----------10-|
E|-------------------------------------------------------------------------------|

3:00 End on:

G|----------------|
D|----------------|
A|-3>-------------|
E|----------------|


| /  slide up
| \  slide down
| h  hammer-on
| p  pull-off
| ~  vibrato
| +  harmonic
| x  Mute note
===============================================================================
            
Submit corrections



        How Can You Swallow So Much Sleep lessons Hard to play? Try these video lessons and learn fast How Can You Swallow So Much Sleep lessons
        
↑ Back to top | Tablatures and chords for acoustic guitar and electric guitar, ukulele, drums are parodies/interpretations of the original songs. You may use it for private study, scholarship, research or language learning purposes only