» » »

Bobby Vinton - Mr Lonely Tabs

Artists:  A B C D E F G H I J K L M N O P Q R S T U V W X Y Z # 

Mr Lonely Tabs

(ver. 1) Click to play this song!
Bobby Vinton
 Rating:
4/5 (4 votes)

 Mr Lonely lessons Tabs too difficult? Try these video lessons and learn fast
 
                Tuning:

e|---------------------------|
B|---------------8-----------|
G|--5---12---12---9-------12-|
D|-----------------10-9------|
A|---------------------------|
E|---------------------------|

e|-----------1---1------------15---------------------12--------|
B|-----------------6-8-10-8--------15-13---131313-15----15-13--|
G|--12-9-5-2---------------------------------------------------|
D|-------------------------------------------------------------|
A|-------------------------------------------------------------|
E|-------------------------------------------------------------|

e|-----------------------------------|
B|-13-------13-----13-15-13-15-9---8-|
G|----16-14--------------------------|
D|-----------------------------------|
A|-----------------------------------|
E|-----------------------------------|

e|---------------------------|
B|---------------8-----------|
G|--5---12---12---9-------12-|
D|-----------------10-9------|
A|---------------------------|
E|---------------------------|

e|---------------------------------------------------------------------------|
B|---------------------------------------------------------------------------|
G|--13---16--14--16-17-------------------------------------------------------|
D|---------------------------------------------------------------------------|
A|---------------------------------------------------------------------------|
E|---------------------------------------------------------------------------|

            
Submit corrections


        Mr Lonely lessons Hard to play? Try these video lessons and learn fast Mr Lonely lessons
        
↑ Back to top | Tablatures and chords for acoustic guitar and electric guitar, ukulele, drums are parodies/interpretations of the original songs. You may use it for private study, scholarship, research or language learning purposes only