» » »

Blue October - Razorblade Bass

Artists:  A B C D E F G H I J K L M N O P Q R S T U V W X Y Z # 

Razorblade Bass

(ver. 1) Click to play this song!
Blue October
 Rating:
4/5 (4 votes)


 Razorblade lessons Tabs too difficult? Try these video lessons and learn fast
 
                Tuning: Standard

Key:
 P Pull off
 H Hammer on
 ~ Let ring
 / Slide up
 \ Slide down

This song is so intense! You really have to admire Piper's playing in this song. Maybe a 
mess-ups here and there but it sounds right to me so enjoy. BLUE OCTOBER KICKS ASS!

             Intro
G|----------|------------14----------14---------------------|
D|-Drum-----|-------11/12-------11/12--12---------|  \/ |---|
A|---Intro--|--12-12-------00-12------------------|  /\  ---|
E|----------|-----------------------------------------------|

 Verse
G|----------14--------12-----------14--------12---|
D|----12/14--------12--------12/14--------12---12-|
A|-12-----------12--------12-----------12---------|
E|------------------------------------------------|

G|----------14--------12-----------14--------12--------------|
D|----12/14--------12--------12/14--------12---12P11H12P11---|
A|-12-----------12--------12-----------12-----------------12-|
E|-----------------------------------------------------------|

G|----------------14----------14-------------------|     __
D|-----------11/12-------11/12--12-----------------|  \/   /
A|------12-12-------00-12--------------------------|  /\  /
E|-------------------------------------------------|

G|--------------14------------|
D|----------------------------|
A|--11-11-11/12----12---------|
E|----------------------------|

 Chorus
G|------------------|      _
D|--------|  \/ |---|
A|--0--0--|  /\ |---|
E|------------------|

 Bridge
G|---------------12----------------|
D|------11H12------12----|  \/ |---|
A|-12-12-----10----------|  /\  ---|
E|---------------------------------|

 Verse
G|----------14--------12-----------14--------12---|
D|----12/14--------12--------12/14--------12---12-|
A|-12-----------12--------12-----------12---------|
E|------------------------------------------------|

G|----------14--------12-----------14--------12--------------|
D|----12/14--------12--------12/14--------12---12P11H12P11---|
A|-12-----------12--------12-----------12-----------------12-|
E|-----------------------------------------------------------|

G|----------------14----------14-------------------|     __
D|-----------11/12-------11/12--12-----------------|  \/   /
A|------12-12-------00-12--------------------------|  /\  /
E|-------------------------------------------------|

G|--------------14------------|
D|----------------------------|
A|--11-11-11/12----12---------|
E|----------------------------|

 Chorus
G|------------------|      _
D|--------|  \/ |---|
A|--0--0--|  /\ |---|
E|------------------|
                                                 __
G|------------14----------12--------------12--|    |
D|-------11H12-------11H12--12--------11H12---|    |
A|-12-12-------12-12------------12-12---------|    |
E|--------------------------------------------|    |      __
                                                   |  \/  __|
                                                   |  /\ |__
G|--------------14------------|                    |
D|----------------------------|                    |
A|--11-11-11/12----12{0}------|                    |
E|----------------------------|                  __|


G|-------------------|
D|-------------------|
A|-00-0------00-0--0-|
E|-------------------|

 Chorus
G|------------------|     __
D|--------|  \/ _---|
A|--0--0--|  /\ _---|
E|------------------|

 Outro
G|--------------------------------------------------|     _
D|--------------------------------------------------| \/ |_
A|-12P0-12P0-12-11P10P9--------------------| /\  ---|
E|---------------------12P11P10---------------------|

G|------------------|
D|------------------|
A|-12P0-12P0-12-----|
E|------------------|

G|-----------------------------------------|
D|-----------------------------------------|
A|-12P0-12P0-12-11P10P9--------------------|
E|---------------------12P11P10------------|

G|------------------|
D|------------------|
A|-12P0-12P0-12-----|
E|------------------|

G|-----------------------------------------|
D|-----------------------------------------|
A|-12P0-12P0-12-11P10P9--------------------|
E|---------------------12P11P10------------|

G|------------------|
D|------------------|
A|-12P0-12P0-12-----|
E|------------------|
            
Submit corrections



        Razorblade lessons Hard to play? Try these video lessons and learn fast Razorblade lessons
        
↑ Back to top | Tablatures and chords for acoustic guitar and electric guitar, ukulele, drums are parodies/interpretations of the original songs. You may use it for private study, scholarship, research or language learning purposes only