» » »

Blood Sweat And Tears - Spinning Wheel Tabs

Artists:  A B C D E F G H I J K L M N O P Q R S T U V W X Y Z # 

Spinning Wheel Tabs

(ver. 2) Click to play this song!
Blood Sweat And Tears
 Rating:
2.1/5 (27 votes)

 Spinning Wheel lessons Tabs too difficult? Try these video lessons and learn fast
 
                
 Intro                                           1st Verse
  Q=96
  Csus4       D7+9
 4/4
  Gtr I (Horns arr. for Gtr.)
   W           s  s  s  s  E  s  s  s  E.  E E    W          W
|-----------|-13-13-13-13-13-13-13-13-13--13---||----------|------|
|-----------|-13-13-13-13-13-13-13-13-13--13---||----------|------|
|-10--------|-11-11-11-11-11-11-11-11-11--11---||----------|------|
|-10--------|-12-12-12-12-12-12-12-12-12--12---||----------|------|
|-----------|----------------------------------||----------|------|
|-----------|----------------------------------||----------|------|


  W          W          W          W
|----------|----------|----------|------|
|----------|----------|----------|------|
|----------|----------|----------|------|
|----------|----------|----------|------|
|----------|----------|----------|------|
|----------|----------|----------|------|


                           2nd Verse
  D7/F#                        G/D    F#m/C#   F/C   N.C.
   Q  Q  H      W           Q   Q  Q   Q    Q   Q  E  S.  T  S  E.
|-22----------|----------||---------------|------------------------|
|-22----------|----------||----12-----10--|----10--------------11--|
|-------------|----------||----12-----11--|----10-----------12-10--|
|-22----------|----------||----12-----11--|----10----12--14--------|
|-21----------|----------||---------------|------------------------|
|-------------|----------||---------------|------------------------|


     G/D    F#m/C#   F/C           G/D    F#m/C#   F/C   N.C.
  Q   Q  Q   Q    Q   Q  H      Q   Q  Q   Q    Q   Q  E  S.  T  S  E.
|---------------|-------------|---------------|------------------------|
|----12-----10--|----10-------|----12-----10--|----10--------------11--|
|----12-----11--|----10-------|----12-----11--|----10-----------12-10--|
|----12-----11--|----10-------|----12-----11--|----10----12--14--------|
|---------------|-------------|---------------|------------------------|
|---------------|-------------|---------------|------------------------|


                              Bridge
               Csus4
  W          E  E  +H.         W          W
|----------|----------------||----------|------|
|----------|----------------||----------|------|
|----------|---10-(10)------||----------|------|
|----------|---10-(10)------||----------|------|
|----------|----------------||----------|------|
|----------|----------------||----------|------|


                        Em/D        Dm/C
  W          W           W           W
|----------|----------|-----------|-------|
|----------|----------|-17--------|-15----|
|----------|----------|-12--------|--7----|
|----------|----------|-14--------|-15----|
|----------|----------|-17--------|-15----|
|----------|----------|-----------|-------|


  C#5/A#                Cm          Dm
  W          W           W           H.      Q
|----------|----------|-----------|-------------|
|----------|----------|-----------|-------------|
|-8--------|----------|--8--------|-10----------|
|-8--------|----------|-10--------|-12----------|
|----------|----------|-----------|-------------|
|----------|----------|-----------|-------------|


  C                        Dsus2
   W          H.      Q     W           +W
|-----------|------------|-----------|---------|
|-----------|------------|-----------|---------|
|--9--------|-7----------|--9--------|--(9)----|
|-10--------|------------|-12--------|-(12)----|
|-----------|------------|-----------|---------|
|-----------|------------|-----------|---------|


                 Ebsus2/C
                              |--3--|  |--3--|
   +H.      Q     e  e  e  e  e  e  e  e  e  e
|--------------|-11-11-11-11-11-11-11-11-11-11-|
|--------------|-11-11-11-11-11-11-11-11-11-11-|
|--(9)---------|-10-10-10-10-10-10-10-10-10-10-|
|-(12)---------|-10-10-10-10-10-10-10-10-10-10-|
|--------------|-------------------------------|
|--------------|-------------------------------|


  Ebsus4/F
   s  s  s  s  E  s  s  s  E.  E E
|-16-16-16-16-16-16-16-16-16--16---|
|-16-16-16-16-16-16-16-16-16--16---|
|-15-15-15-15-15-15-15-15-15--15---|
|-15-15-15-15-15-15-15-15-15--15---|
|----------------------------------|
|----------------------------------|


             3rd Verse
                 G/D    F#m/C#   F/C   N.C.               G/D    F#m/C#
  W           Q   Q  Q   Q    Q   Q  E  S.  T  S  E.   Q   Q  Q   Q
|----------||---------------|------------------------|---------------|
|----------||----12-----10--|----10--------------11--|----12-----10--|
|----------||----12-----11--|----10-----------12-10--|----12-----11--|
|----------||----12-----11--|----10----12--14--------|----12-----11--|
|----------||---------------|------------------------|---------------|
|----------||---------------|------------------------|---------------|


     F/C           G/D    F#m/C#   F/C   N.C.
  Q   Q  H      Q   Q  Q   Q    Q   Q  E  S.  T  S  E.   W
|-------------|---------------|------------------------|------|
|----10-------|----12-----10--|----10--------------11--|------|
|----10-------|----12-----11--|----10-----------12-10--|------|
|----10-------|----12-----11--|----10----12--14--------|------|
|-------------|---------------|------------------------|------|
|-------------|---------------|------------------------|------|


                       Interlude
    D7+9
  E  E  +Q    +H        W          W          W
|---13-(13)--(13)----||----------|----------|------|
|---13-(13)--(13)----||----------|----------|------|
|---11-(11)--(11)----||----------|----------|------|
|---12-(12)--(12)----||----------|----------|------|
|--------------------||----------|----------|------|
|--------------------||----------|----------|------|


             Trumpet Solo
              Q=192(8=s8)
  W            Wx15
|----------||----------|
|----------||----------|
|----------||----------|
|----------||----------|
|----------||----------|
|----------||----------|


             G5/G#
  W           Q  E  E  +H        +W            +W
|----------|-15----15-(15)----|-(15)--------|-(15)----|
|----------|-15----15-(15)----|-(15)--------|-(15)----|
|----------|-13----13-(13)----|-(13)--------|-(13)----|
|----------|------------------|-------------|---------|
|----------|------------------|-------------|---------|
|----------|------------------|-------------|---------|


                 F#5/G
   +H.      Q     Q  E  E  +H        +W            +W
|-(15)---------|-14----14-(14)----|-(14)--------|-(14)----|
|-(15)---------|-14----14-(14)----|-(14)--------|-(14)----|
|-(13)---------|-12----12-(12)----|-(12)--------|-(12)----|
|--------------|------------------|-------------|---------|
|--------------|------------------|-------------|---------|
|--------------|------------------|-------------|---------|


                 F5/F#
   +H.      Q     Q  E  E  +H        +W            +H     H
|-(14)---------|-13----13-(13)----|-(13)--------|-(13)---------||
|-(14)---------|-13----13-(13)----|-(13)--------|-(13)---------||
|-(12)---------|-11----11-(11)----|-(11)--------|-(11)---------||
|--------------|------------------|-------------|--------------||
|--------------|------------------|-------------|--------------||
|--------------|------------------|-------------|--------------||


 4th Verse
  Q=96
     G/Ab  F#m/G      F/F#  N.C.               G/Ab  F#m/G      F/F#
            ~~~                                       ~~~
  Q   Q  E  Q.     Q   Q  E  S.  T  S  E.   Q   Q  E  Q.     Q   Q  H
|----19----17----|----17-----------15-18--|----19----17----|----17-------|
|----20----19----|----18----15--17----18--|----20----19----|----18-------|
|----19----18----|----17-----------12-----|----19----18----|----17-------|
|----18----17----|----16----12--14----15--|----18----17----|----16-------|
|----------------|------------------------|----------------|-------------|
|----------------|------------------------|----------------|-------------|


     G/Ab  F#m/G      F/F#  N.C.
                                                      3/4
            ~~~
  Q   Q  E  Q.     Q   Q  E  S.  T  S  E.   W          W
|----19----17----|----17-----------15-18--|----------|------||
|----20----19----|----18----15--17--------|----------|------||
|----19----18----|----17-----------12-----|----------|------||
|----18----17----|----16----12--14----15--|----------|------||
|----------------|------------------------|----------|------||
|----------------|------------------------|----------|------||


 Outro
    G5/Ab   F#5/G          F5/F#   B5/A    G5/Ab   F#5/G
 9/8                    6/8             9/8
  E  e  e E  e  e Q.     E  e  e E  Q    E  e  e E  e  e Q.
|---15-15---14-14------|---13-13---14--|---15-15---14-14------|
|---15-15---14-14------|---13-13---12--|---15-15---14-14------|
|---13-13---12-12------|---11-11---14--|---13-13---12-12------|
|----------------------|---------------|----------------------|
|----------------------|---------------|----------------------|
|----------------------|---------------|----------------------|


    F5/F#   B5/A                                       G5/Ab   F#5/G
 6/8                                                9/8
  E  e  e E  Q    W                W                 E  e  e E  e  e Q.
|---13-13---14--|----------------|-----------------|---15-15---14-14-------|
|---13-13---12--|----------------|-----------------|---15-15---14-14-------|
|---11-11---14--|----------------|-----------------|---13-13---12-12-------|
|---------------|----------------|-----------------|-----------------------|
|---------------|----------------|-----------------|-----------------------|
|---------------|----------------|-----------------|-----------------------|
|
| Gtr II (Calliope arr. for Gtr.)
| W               E. S S S E e e   E S S S S E e e   W
|---------------|-7--8-7-5-3-----|-7---8-7-5-3-----|-----------------------|
|---------------|------------3-3-|-----------------|-----------------------|
|---------------|-7--9-7-5-4-----|---7---7-----7-7-|-----------------------|
|---------------|------------5-5-|-7---------5-----|-----------------------|
|---------------|----------------|-----------------|-----------------------|
|---------------|----------------|-----------------|-----------------------|


    F5/F#   B5/A                                       G5/Ab   F#5/G
 6/8                                                9/8
  E  e  e E  Q    W                W                 E  e  e e  e  e Q.
|---13-13---14--|----------------|-----------------|---15-15---14-14-------|
|---13-13---12--|----------------|-----------------|---15-15---14-14-------|
|---11-11---14--|----------------|-----------------|---13-13---12-12-------|
|---------------|----------------|-----------------|-----------------------|
|---------------|----------------|-----------------|-----------------------|
|---------------|----------------|-----------------|-----------------------|
|
| W               E. S S S E e e   E S S S S E e e   W
|---------------|-7--8-7-5-3-----|-7---8-7-5-3-----|-----------------------|
|---------------|------------3-3-|-----------------|-----------------------|
|---------------|-7--9-7-5-4-----|---7---7-----7-7-|-----------------------|
|---------------|------------5-5-|-7---------5-----|-----------------------|
|---------------|----------------|-----------------|-----------------------|
|---------------|----------------|-----------------|-----------------------|


    F5/F#   B5/A  N.C.
 6/8
                  Gtr II
  E  e  e E  Q    E. S S S E E E   E E E Q.     E. S S S E e e
|---13-13---14--|-7--8-7-5-------|-5----------|-7--8-7-5-3-----|
|---13-13---12--|----------8-----|-------8----|------------3-3-|
|---11-11---14--|------------7-7-|---7-7------|-7--9-7-5-4-----|
|---------------|----------------|------------|------------5-5-|
|---------------|----------------|------------|----------------|
|---------------|----------------|------------|----------------|


  E S S S S E e e   E. S S S E E E   E E E Q.     E. S S S E e e
|-7---8-7-5-3-----|-7--8-7-5-------|-5----------|-7--8-7-5-3-----|
|-----------------|----------8-----|-------8----|------------3-3-|
|---7---7-----7-7-|------------7-7-|---7-7------|-7--9-7-5-4-----|
|-7---------5-----|----------------|------------|------------5-5-|
|-----------------|----------------|------------|----------------|
|-----------------|----------------|------------|----------------|


  E S S S S E e e   E. S S S E e e   E S S S S E e e   E. S S S E E E
|-7---8-7-5-3-----|-7--8-7-5-3-----|-7---8-7-5-3-----|-7--8-7-5-------|
|-----------------|------------3-3-|-----------------|----------8-----|
|---7---7-----7-7-|-7--9-7-5-4-----|---7---7-----7-7-|------------7-7-|
|-7---------5-----|------------5-5-|-7---------5-----|----------------|
|-----------------|----------------|-----------------|----------------|
|-----------------|----------------|-----------------|----------------|


  E E E Q.     E. S S S E E E   E E E Q.     E. S S S E e e
|-5----------|-7--8-7-5-------|-5----------|-7--8-7-5-3-----|
|-------8----|----------8-----|-------8----|------------3-3-|
|---7-7------|------------7-7-|---7-7------|-7--9-7-5-4-----|
|------------|----------------|------------|------------5-5-|
|------------|----------------|------------|----------------|
|------------|----------------|------------|----------------|


  E S S S S E e e   E. S S S E e e   E S S S S E e e   E. S S S E E E
|-7---8-7-5-3-----|-7--8-7-5-3-----|-7---8-7-5-3-----|-7--8-7-5-------|
|-----------------|------------3-3-|-----------------|----------8-----|
|---7---7-----7-7-|-7--9-7-5-4-----|---7---7-----7-7-|------------7-7-|
|-7---------5-----|------------5-5-|-7---------5-----|----------------|
|-----------------|----------------|-----------------|----------------|
|-----------------|----------------|-----------------|----------------|


  E E E Q.     E. S S S E e e   E S S S S E e e
|-5----------|-7--8-7-5-3-----|-7---8-7-5-3-----*|
|-------8----|------------3-3-|-----------------*|
|---7-7------|-7--9-7-5-4-----|---7---7-----7-7-*|
|------------|------------5-5-|-7---------5-----*|
|------------|----------------|-----------------*|
|------------|----------------|-----------------*|            
Submit corrections


        Spinning Wheel lessons Hard to play? Try these video lessons and learn fast Spinning Wheel lessons
        
↑ Back to top | Tablatures and chords for acoustic guitar and electric guitar, ukulele, drums are parodies/interpretations of the original songs. You may use it for private study, scholarship, research or language learning purposes only