» » »

Bloc Party - Your Visits Are Getting Shorter Bass

Artists:  A B C D E F G H I J K L M N O P Q R S T U V W X Y Z # 

Your Visits Are Getting Shorter Bass

(ver. 1) Click to play this song!
Bloc Party
 Rating:
4/5 (4 votes)

 Your Visits Are Getting Shorter lessons Tabs too difficult? Try these video lessons and learn fast
 
                Intro (it sounds like synth or it may just be an effect on a pedal)

 G ----------------5-5-5-5-5-5-5-5-4-4-4-4-4-4-4-4---------------|
 D ------------------------------------------------5-5-5-5-5-5-5-|   x3
 A 3-3-3-3-3-3-3-3-----------------------------------------------|
 E --------------------------------------------------------------|

 G ----------------5~~~~~~~~~~~~~~~4~~~~~~~~~~~~~~---------------|
 D ------------------------------------------------5~~~~~~~~~~~~~|   x1
 A 3~~~~~~~~~~~~~~-----------------------------------------------|
 E --------------------------------------------------------------|


Main Riff / Verse
 
 G --------------------------------|--------------------------|
 D ------------2-2-3-3-----5-5-----|------------2-2-----------|   x5
 A 0-0-2-2-3-3---------3-3-----3-3-|0-0-2-2-3-3--------3----5-|
 E --------------------------------|----------------1----3----|

 G --------------------------------|--------------------------|
 D ------------2-2-3-3-----5-5-----|------------2-2-----------|   x1
 A 0-0-2-2-3-3---------3-3-----3-3-|0-0-2-2-3-3---------------|
 E --------------------------------|--------------------------|

 G --------------------------------|--------------------------|
 D ------------2-2-3-3-----5-5-----|------------2-2-----------|   x2
 A 0-0-2-2-3-3---------3-3-----3-3-|0-0-2-2-3-3--------3----5-|
 E --------------------------------|----------------1----3----|


Chorus

 G --------------------------------|--------------------------|
 D ------------2-2-3-3-----5-5-----|------------2-2-----------|   x3
 A 0-0-2-2-3-3---------3-3-----3-3-|0-0-2-2-3-3--------3----5-|
 E --------------------------------|----------------1----3----|


Verse

 G ----------------5-5-5-5-5-5-5-5-4-4-4-4-4-4-4-4---------------|
 D ------------------------------------------------5-5-5-5-5-5-5-|   x2
 A 3-3-3-3-3-3-3-3-----------------------------------------------|
 E --------------------------------------------------------------|


Chorus

 G --------------------------------|--------------------------|
 D ------------2-2-3-3-----5-5-----|------------2-2-----------|   x4
 A 0-0-2-2-3-3---------3-3-----3-3-|0-0-2-2-3-3--------3----5-|
 E --------------------------------|----------------1----3----|


Bridge 

 G ----------------------------------------------------------------|
 D ----------------------------------------------------------------|   x1
 A --------------------------------3-3-3-3-3-3-3-3-----------------|
 E 5-5-5-5-5-5-5-5-1-1-1-1-1-1-1-1-----------------3-3-3-3-3-3-3-3-|

 G ----------------------------------------------------------------|
 D ----------------------------------------------------------------|   x1
 A --------------------------------3-3-3-3-3-3-3-3-5-5-5-5-7-7-8-8-|
 E 5-5-5-5-5-5-5-5-1-1-1-1-1-1-1-1---------------------------------|


Pause for afew seconds...

guitar plays synth bit. 


Verse

 G --------------------------------|--------------------------|
 D --------------------------------|--------------------------|   x1
 A --------------------------------|-------------------3----5-|
 E --------------------------------|----------------1----3----|

 G --------------------------------|--------------------------|
 D ------------2-2-3-3-----5-5-----|------------2-2-----------|   x2
 A 0-0-2-2-3-3---------3-3-----3-3-|0-0-2-2-3-3--------3----5-|
 E --------------------------------|----------------1----3----|


Outro

 G ----------------------------------------------------------------|
 D ----------------------------------------------------------------|   x1
 A --------------------------------3-3-3-3-3-3-3-3-----------------|
 E 5-5-5-5-5-5-5-5-1-1-1-1-1-1-1-1-----------------3-3-3-3-3-3-3-3-|

 G ----------------------------------------------------------------|
 D ----------------------------------------------------------------|   x1
 A --------------------------------3-3-3-3-3-3-3-3-5-5-5-5-7-7-8-8-|
 E 5-5-5-5-5-5-5-5-1-1-1-1-1-1-1-1---------------------------------|

Hope you have as much fun playing this song as i do! Daryl... :) 
            
Submit corrections


        Your Visits Are Getting Shorter lessons Hard to play? Try these video lessons and learn fast Your Visits Are Getting Shorter lessons
        
↑ Back to top | Tablatures and chords for acoustic guitar and electric guitar, ukulele, drums are parodies/interpretations of the original songs. You may use it for private study, scholarship, research or language learning purposes only