» » »

Bloc Party - Rhododendrons Bass

Artists:  A B C D E F G H I J K L M N O P Q R S T U V W X Y Z # 

Rhododendrons Bass

(ver. 1) Click to play this song!
Bloc Party
 Rating:
4/5 (4 votes)

 Rhododendrons lessons Tabs too difficult? Try these video lessons and learn fast
 
                Brilliant song, it should have been on the album.

Verse 
G|--------------------------------------|
D|------------------5~------------------|
A|7~-------5~-----------------3~--------|
E|--------------------------------------|

Chorus
G|---------------------------|
D|-------------------5~------|
A|3~----2~----5~-------------|
E|---------------------------|

Break "So you want to be an artist"
G|-------------------------------|
D|-------------------------------|
A|3~------2~------5~------7~-----|
E|-------------------------------|x4

"Drunk again in the rhododendrons"
G|--------------------------------|
D|--------------------------------|
A|33333333222222225555555577777777|

Near the end of the solo, it changes to
G|---------------------------------------------------------------|
D|---------------------------------------------------------------|
A|3-3333--2-2222--5-5555--7-7777--0-0000--2-2222--5-5555--7-7777-|
E|------0-------0-------0-------0-------0-------0-------0-------0|
Play this until the end.
E|--------------------------------|
            
Submit corrections


        Rhododendrons lessons Hard to play? Try these video lessons and learn fast Rhododendrons lessons
        
↑ Back to top | Tablatures and chords for acoustic guitar and electric guitar, ukulele, drums are parodies/interpretations of the original songs. You may use it for private study, scholarship, research or language learning purposes only