» » »

Bloc Party - Idea For A Story Tabs

Artists:  A B C D E F G H I J K L M N O P Q R S T U V W X Y Z # 

Idea For A Story Tabs

(ver. 1) Click to play this song!
Bloc Party
 Rating:
4/5 (4 votes)

 Idea For A Story lessons Tabs too difficult? Try these video lessons and learn fast
 
                ----------------------------------------------------------------------------
----------------------------------------------------------------------------


Tuning: EADGBe (Standard)

Intro:

e|-------|
B|-------|
G|-------|
D|-------|
A|-6--*--|
E|-------|      x 8

Verse:

e|--------------------------|
B|--------------------------|
G|-----8-----------8--4--6--|
D|--8-----4--6--8-----------|
A|--6-----6-----6-----6-----|
E|--------------------------|

Let the root note ring (5th string, fret 6).

(Chords - D#m F# G#, D#m B C#)

Chorus:

e|-----------------------------------------------------------|
B|-----------------------------------------------------------|
G|-----------------------------------------------------------|
D|-------4--1---------4--1-----------4--1--------------------|
A|--2------------2-------------2---------------4-------------|
E|----------------------------------------------------4------|

e|-----------------------------------------------------------|
B|-----------------------------------------------------------|
G|-----------------------------------------------------------|
D|-------4--1---------4--1-----------4--1--------------------|
A|--2------------2-------------2---------------4-------------|
E|-----------------------------------------------------------|

(Chords - B, D#m, B, D#m, B, D#m, C#, G#)

| /  slide up
| \  slide down
| h  hammer-on
| p  pull-off
| ~  vibrato
| +  harmonic
| x  Mute note
============================================================================
            
Submit corrections


        Idea For A Story lessons Hard to play? Try these video lessons and learn fast Idea For A Story lessons
        
↑ Back to top | Tablatures and chords for acoustic guitar and electric guitar, ukulele, drums are parodies/interpretations of the original songs. You may use it for private study, scholarship, research or language learning purposes only