» » »

Bloc Party - Day Four Bass

Artists:  A B C D E F G H I J K L M N O P Q R S T U V W X Y Z # 

Day Four Bass

(ver. 1) Click to play this song!
Bloc Party
 Rating:
4/5 (4 votes)

 Day Four lessons Tabs too difficult? Try these video lessons and learn fast
 
                ------------------------------------------------------------------
DAY FOUR - Bloc Party
------------------------------------------------------------------

Album - Four
Bassist - Gordon Moakes


Anything it gives...
G|---------------|---------------|---------------|---------------|
D|---------------|---------------|---------------|---------------|
A|2-2-2-2-2-2-2-2|3-3-3-3-3-3-3-3|5-5-5-5-5-5-5-5|7-7-7-7-7-7-7-7|
E|---------------|---------------|---------------|---------------|

G|---------------|---------------|---------------|---------------|
D|---------------|---------------|---------------|---------------|
A|2-2-2-2-2-2-2-2|3-3-3-3-3-3-3-3|5-5-5-5-5-5-5-5|5-5-5-5-5-5-5-5|
E|---------------|---------------|---------------|---------------|


My light burns low...
G|---------------|---------------|---------------|---------------|
D|2-2-2-2-2-2-2-2|2-2-2-2-2-2-0-2|4-4-4-4-4-4-4-4|---------------|
A|---------------|---------------|---------------|2-2-2-2-2-2-2/5|
E|---------------|---------------|---------------|---------------|
                                                                   x2
G|---------------|---------------|---------------|---------------|
D|5-5-5-5-5-5-5-5|5-5-5-5-5-5----|7-7-7-7-7-7-7-7|---------------|
A|---------------|------------5/7|---------------|5-5-5-5-5-5-5-5|
E|---------------|---------------|---------------|---------------|


I ve felt death...
G|---------------|---------------|---------------|---------------|
D|5-5-5-5-5-5-5-5|5-5-5-5-5-5----|7-7-7-7-7-7-7-7|7-7-7-7-7-7-7--|
A|---------------|------------5/7|---------------|--------------5|
E|---------------|---------------|---------------|---------------|
                                                                   x3
G|---------------|---------------|---------------|---------------|
D|5-5-5-5-5-5-5-5|5-5-5-5-5-5----|7-7-7-7-7-7-7-7|7-7-7-7-7-7-7--|
A|---------------|------------5/7|---------------|--------------5|
E|---------------|---------------|---------------|---------------|

G|---------------|---------------|---------------|---------------|
D|5-5-5-5-5-5-5-5|5-5-5-5-5-5----|7-7-7-7-7-7-7-7|---------------|
A|---------------|------------5/7|---------------|---------------|
E|---------------|---------------|---------------|5-5-5-5-5-5-5-5|


If you re ever lonely...
G|---------------|---------------|---------------|---------------|
D|---------------|---------------|---------------|---------------|
A|2-2-2-2-2-2-2-2|3-3-3-3-3-3-3-3|5-5-5-5-5-5-5-5|7-7-7-7-7-7-7-7|
E|---------------|---------------|---------------|---------------|

G|---------------|---------------|---------------|---------------|
D|---------------|---------------|---------------|---------------|
A|2-2-2-2-2-2-2-2|3-3-3-3-3-3-3-3|5-5-5-5-5-5-5-5|5-5-5-5-5-5-5-5|
E|---------------|---------------|---------------|---------------|


My light burns low...
G|---------------|---------------|---------------|---------------|
D|2-2-2-2-2-2-2-2|2-2-2-2-2-2-0-2|4-4-4-4-4-4-4-4|---------------|
A|---------------|---------------|---------------|2-2-2-2-2-2-2/5|
E|---------------|---------------|---------------|---------------|
                                                                   x2
G|---------------|---------------|---------------|---------------|
D|5-5-5-5-5-5-5-5|5-5-5-5-5-5----|7-7-7-7-7-7-7-7|---------------|
A|---------------|------------5/7|---------------|5-5-5-5-5-5-5-5|
E|---------------|---------------|---------------|---------------|


On the fourth day...
G|---------------|---------------|---------------|---------------|
D|---------------|---------------|---------------|---------------|
A|---------------|---------------|---------------|---------------|
E|0-0-0-0-0-0-0-0|2-2-2-2-2-2-3-2|3-3-3-3-3-3-5-3|5-5-5-5-5-5-7-5| x4


03:07
G|---------------|---------------|-----14--14-16-17|------------------|
D|14----14----14-|14----14----14-|12/14--14--------|------------------|
A|---------------|---------------|-----------------|------------------|
E|---------------|---------------|-----------------|------------------|

G|---------------|---------------|-----14--14-16-17|----17------17----|
D|14----14----14-|14----14----14-|12/14--14--------|------------------|
A|---------------|---------------|-----------------|15------15/----15/|
E|---------------|---------------|-----------------|------------------|

G|-----14--14-16-16|---16-----16----|-----14--14-16-17|----17------17----|
D|12/14--14--------|14----14/----14/|12/14--14--------|------------------|
A|-----------------|----------------|-----------------|15------15/----15/|
E|-----------------|----------------|-----------------|------------------| etc...

not 100% sure, but sounds good.
            
Submit corrections


        Day Four lessons Hard to play? Try these video lessons and learn fast Day Four lessons
        
↑ Back to top | Tablatures and chords for acoustic guitar and electric guitar, ukulele, drums are parodies/interpretations of the original songs. You may use it for private study, scholarship, research or language learning purposes only