» » »

*Blink 182* - Instrumental Tabs

Artists:  A B C D E F G H I J K L M N O P Q R S T U V W X Y Z # 

Instrumental Tabs

(ver. 1) Click to play this song!
*Blink 182*
 Rating:
4/5 (4 votes)
    Instrumental lessons Tabs too difficult? Try these video lessons and learn fast
                blink 182
instrumental
bass intro(for guitar)
e|---------------------------------------------------------------------------|
B|---------------------------------------------------------------------------|
G|---------------------------------------------------------------------------|
D|---------------------------------------------------------------------------|
A|-----5---5-----5---5---2-----2---2-----0---0-------------------------------|
E|-3-3---3---5-5---5---0---0-0---0---0-0---0---------------------------------|

guitar intro, palm mute every once in a while
e|---------------------------------------------------------------------------|
B|---------------------------------------------------------------------------|
G|--0-0-0-0-0-0-0-0-0-0-0-0-0------------------------------------------------|
D|---------------------------------------------------------------------------|
A|---------------------------------------------------------------------------|
E|---------------------------------------------------------------------------|

guitar intro chords
e|---------------------------------------------------------------------------|
B|---------------------------------------------------------------------------|
G|---------------------------------------------------------------------------|
D|--------3--4---------------------------------------------------------------|
A|--4--6--1--2---------------------------------------------------------------|
E|--2--4---------------------------------------------------------------------|

another guitar part
e|---------------------------------------------------------------------------|
B|---3---3-1-0----3---3-1-0--------------------------------------------------|
G|-0---0--------0---0--------------------------------------------------------|
D|---------------------------------------------------------------------------|
A|---------------------------------------------------------------------------|
E|---------------------------------------------------------------------------|
            
Submit corrections

↑ Back to top | Tablatures and chords for acoustic guitar and electric guitar, ukulele, drums are parodies/interpretations of the original songs. You may use it for private study, scholarship, research or language learning purposes only