» » »

Blackmores Night - Messenger Tabs

Artists:  A B C D E F G H I J K L M N O P Q R S T U V W X Y Z # 

Messenger Tabs

(ver. 1) Click to play this song!
Blackmores Night
 Rating:
4/5 (4 votes)


 Messenger lessons Tabs too difficult? Try these video lessons and learn fast
 
                Tempo = 105
Ritchie Blackmore

Legend
L - tied note
x - dead note
h - hammer on/pull off
b - bend
s - slide
~ - vibrato
g - ghost note
> - accentuated note
t - trill
M - palm mute
. - staccato
P - popping (bass)
S - slapping (bass)
+ - tapping
W - wide vibrato
< - fade in
w - whammy bar
= - tremolo picking
v - brush up
^ - brush down
V - pick stroke up
n - pick stroke down


E |----------------------------|
B |----------------------------|
G |--------------------2--4----|
D |--2-------------------------|
A |----------------------------|
E |----------------------------|


--1-----------------------------------5--------3h-5h-3----------------------|
--------------------------------------------------------5L------------------|


----------------------------|----------------------------|
----------------------------|--3--1--0-------------------|
--5-----2--4--5-------------|----------------------------|
----------------------------|----------------------------|
----------------------------|----------------------------|
----------------------------|----------------------------|


--4-----------------------------------5--------4h-5h-4h-2L------------------|


----------------------------|----------------------------|
----------------------------|----------------------------|
--2--1--------2L------------|--2-----------------2--4----|
----------------------------|--------------2-------------|
----------------------------|----------------------------|
----------------------------|----------------------------|


--1-----------------------------------------------5-----------3-----------3s-5L-|


-----------------------|--------5--7--8-------------|
-----------------------|--5-------------------------|
-----------------------|----------------------------|
-----------------------|----------------------------|
-----------------------|----------------------------|
-----------------------|----------------------------|


--7--5----------------------|-----------4L---|--4-----5--7--5-------------|
--------8-------------------|--5-------------|----------------------------|
----------------------------|----------------|----------------------------|
----------------------------|----------------|----------------------------|
----------------------------|----------------|----------------------------|
----------------------------|----------------|----------------------------|


----------------------------|--------5--3t---------------|
--------------3h-5--6L------|--6--------------3L---------|
--2-------------------------|----------------------------|
----------------------------|----------------------------|
----------------------------|----------------------------|
----------------------------|----------------------------|


--3-----------------------------------------------------------------------4-----|


---5-----------------------------------------------------------------------6----|




-------------------------------------------------------------|
h----------5h----------3-------------------------------------|
-------------------------------------------------------------|
-------------------------------------------------------------|
-------------------------------------------------------------|
-------------------------------------------------------------|


----------------------------|----------------------------|
-----------3--5--6----------|--5t-------3----------------|
--5-------------------------|-----------------------4----|
----------------------------|----------------------------|
----------------------------|----------------------------|
----------------------------|----------------------------|


----------------------------|----------------------------|
--------------------5-------|-----------5--6-------------|
--5--------7----------------|--------7-------------------|
----------------------------|--7-------------------------|
----------------------------|----------------------------|
----------------------------|----------------------------|


--------------------------------------------10------|
--8h-10-------8-----------------------13------------|
----------------------------------------------------|
----------------------------------------------------|
----------------------------------------------------|
----------------------------------------------------|


--12-------13-------12h13h12-10----------------10-------12------------------|
--------------------------------------13------------------------------------|


-----------13-------12-------15-------13h15h13-12---------------------------|
--------------------------------------------------------15-------13---------|


--12-------13-------12h13h12----------------------------12------------------|
-----------------------------------------------14---------------------------|


-----------0-----------0----|-----------0----------------|
--12----12----12----12------|--12----12----12------------|
-----14----------14---------|-----14----------13---------|
----------------------------|--------------------14------|
----------------------------|----------------------------|
----------------------------|----------------------------|


----------------------------|
----------------------------|
----------------------------|
-----------------2s---------|
----------------------------|
----------------------------|


--------------------1-----------------------------------5--------3h-5h-3----|
--2--------4----------------------------------------------------------------|


----------------------------|----------------------------|
----------------------------|--------3--1--0L------------|
--5-----------2--4--5L------|--5-------------------------|
----------------------------|----------------------------|
----------------------------|----------------------------|
----------------------------|----------------------------|


--0-------------------------------------------------------------------------|
--------------------4s----------------------------------5--------4h-5h-4h---|


----------------------------|----------------------------|
----------------------------|----------------------------|
--2--------1----------------|--------2--4--5--4--5-------|
----------------------------|-----2----------------------|
--------------------0--2----|--3-------------------------|
----------------------------|----------------------------|


----------------------------|--0-------------------------|
--------2--------3----------|--------------3--5--6L------|
--4--5----------------------|--------2-------------------|
----------------------------|--------------3g-5g-6L------|
----------------------------|----------------------------|
----------------------------|----------------------------|


----------------------------|----------------------------|----------------|
--6-----3--5--6-------------|--3--5--6-----------5--3----|--1-------------|
----------------------------|----------------------------|-----------2L---|
--6-----3g-5g-6g------------|--3g-5g-6g----------5g-3g---|--2g------------|
----------------------------|----------------------------|----------------|
----------------------------|----------------------------|----------------|


----------|
-----3----|
--2-------|
----------|
----------|
----------|


-----------7--------9--------10-------9h-10h9h-7-----------------7----------|
--------------------------------------------------------7-------------------|


-----------10-10-12-13L13---|--------10-12-13------------|
--------10----12-14-15L15---|--------12-14-15------------|
--9--10---------------------|----------------------------|
----------------------------|----------------------------|
----------------------------|----------------------------|
----------------------------|----------------------------|


--10-------12-------13----------------------------------12h13h12-10---------|
--12-------14-------15------------------------------------------------------|


--13----------------------------------11-------10-------11-------10h11h10---|


----------------------------|
-----10-11-10---------------|
--12-------------------7----|
----------------------------|
----------------------------|
----------------------------|


-----------------------------------------------10-------8-------------------|
--9--------10-------9h-10h9--------------------------------------10---------|


-----------------------------12-------10h12h10----------10------------------|
--9--------10-------9h-10h9--------------------12----------------9----------|


----------------------------|----------------|
----------------------------|----------------|
----------------------------|----------------|
--9-----7g-9g---------------|-----------2s---|
--------------7g------------|----------------|
----------------------------|----------------|


--------------------1-----------------------------------5--------3h-5h-3----|
--2--------4----------------------------------------------------------------|


----------------------------|
----------------------------|
--5-----------2--4--5L------|
----------------------------|
----------------------------|
----------------------------|


--------------------1h-3h-1h-0--------0-------------------------------------|
--5-------------------------------------------------------------------------|


--4-----------------------------------5--------4h-5h-4h-2-------------------|


----------------------------|
----------------------------|
-----1--------2-------------|
----------------------------|
----------------------------|
----------------------------|


--------------------------------------------------2--5-----------4--7-----------|
--7-----------------------------------------------------------------------------|


-----------------------------|----------------------------|
-----------------------------|----------------------------|
5--9L------------------------|--9-----9--7--9-------------|
-----------------------------|----------------------------|
-----------------------------|----------------------------|
-----------------------------|----------------------------|


-----7--8-----------7h-5----|----------|
--10------------------------|--8-------|
----------------------------|-----9----|
----------------------------|----------|
----------------------------|----------|
----------------------------|----------|


--------5--6--7-------------------------------------|
-----8----------------------------------------------|
--9-------------------------------------------------|
----------------------------------------------------|
----------------------------------------------------|
----------------------------------------------------|


-----------10----12----13----12h13h12h10-----------------------------------------|
--------------------------------------------13----12h13h12h10L10-----------------|


--------------------|
--------------------|
10L10-9L-9--12------|
--------------------|
--------------------|
--------------------|


--10h12h10h9--------------------------------------------------------------------|
-----------------12h13h12h10----9h-10h9h-7-----7h-8h-7h-6-----7-----6-----6-----|


--------------------|
6-------------------|
---6--------6-------|
------6-------------|
--------------------|
--------------------|


--------------------------------------------------7-----5h-7h-5h-0--------------|
--------3-----------------------3-----------------------------------------------|
-----------3-----------------------3--------------------------------------------|
--3-----------3-----------3-----------2-----------------------------------------|
--------------------------------------------0-----------------------0-----------|


------------12M-----|
12M-----------------|
--------------------|
--------------------|
--------------------|
--------------------|


-----------------12----13----12----15----13h15h13h12----------------------5h----|
--------------------------------------------------------15----13h15h13h12-------|


7h----0-----5-------|--4-----------------11g-----------------------------|
--------------------|--------9g-------------------------------9-----9----|
--------------------|--------------11g8g----8g-4-----5--7--9-----9-------|
--------------------|----------------------------------------------------|
--------------------|----------------------------------------------------|
--------------------|----------------------------------------------------|


--------------------10----------------------------------------------------------|
-----------9--------------------------------------------------------------------|
--9-----------------------------------------------------------------------------|
--------------------------------------6h----------------7h----------------6h----|


------------------------------6-------------------------------------|
------------------------------------------------6h----7h----6-------|
------------7-------------------------------------------------------|


--------------------7-----------------7-----------------5h----7h----5h----4-----|
--6-----------------------------------------------------------------------------|


---------------------4----------------------------------------------|
------------7-----------------5-----------------6-------------------|


--5h-6h-5h-3--------3h-5h-3-------------------------------------------------|
-----------------------------6----------------------------------------------|
--------------------------------------6-----------------2-------------------|
-----------------------------------------------0----------------------------|


----------------------------------------------------|
--------0-----1-------------------------------------|
--2-----------------------4h----2h-4h-2h----0-------|
----------------------------------------------------|
----------------------------------------------------|
----------------------------------------------------|


-----------------------------------------0L-0-------|
--------------------0--------------0h-1-----0h------|
--------------0-----------------2-------------------|
--------0--------------------2----------------------|
----------------------------------------------------|
--3-----------------------0-------------------------|


--------------------------------------------------------------0-----------------|
--1h-3h-1h-0--------------------------------------------0-----------------------|
--------------------------------------------------1-----------------------------|
--------------------------------------------2-----------------------------------|
--------------------------------------2-----------------------------------------|
--------------0-----------------------------------------------------------------|

                       ^  ^  ^  ^       ^  ^  ^  ^       ^  ^  ^  ^
--------------------|--0--1--2--3----|--4--5--7--8----|--8--8--8--8----|
--------------------|--1--2--3--3----|--5--6--8--8----|--8--8--8--8----|
--------------------|--2--3--4--4----|--6--7--9--9----|--9--9--9--9----|
--------------------|----------------|----------------|----------------|
--------------------|--0g-0g-0g-0g---|--0g-0g-0g-0g---|--0g-0g-0g-0g---|
--------------------|----------------|----------------|----------------|

  ^  ^       ^
--8--0----|-------||
--8--1----|--1g---||
--9--2g---|--2----||
-----2g---|--2----||
--0g-0g---|--0----||
----------|-------||
            
Submit corrections



        Messenger lessons Hard to play? Try these video lessons and learn fast Messenger lessons
        
↑ Back to top | Tablatures and chords for acoustic guitar and electric guitar, ukulele, drums are parodies/interpretations of the original songs. You may use it for private study, scholarship, research or language learning purposes only