Home » B » Black Label Society »

Black Label Society - Stillborn Tabs

Artists:  A B C D E F G H I J K L M N O P Q R S T U V W X Y Z # 

Stillborn Tabs

(ver. 3) Click to play this song!
Black Label Society
           aim - skate hippie

==Key==

  p - pull off
  h - hammer on
  / - slide up
  \ - slide down
  ^ - half step bend
  r - release
  ~ - vibrate
(#) - optional or hidden note
  x - palm mute
  * - harmonic


Well I guess no one has tabbed this song yet, so I
figured i'd lay out the basic riffs to the song...
I haven't figured out the solo yet, but I 
am 100% sure this is how the verse/chorus goes.

Tuning is one half-step down: Eb Ab Db Gb Bb eb


Note: Zakk Wylde's style is very grungy and there are many
      variations throughout the verse that are not tabbed here.

Intro/Verse
                                pre-chorus fill
eb :-------------------------------------|-------------------------------------|
Bb :-------------------------------------|-------------------------------------|
Gb :-------------------------------------|-------------------------------------|
Db :---4-4------4-------4-4------4-------|------2-2-2-2-2-2-2-2-2-2-2-2-2-2-2--|
Ab :---4-4------4-------4-4------4-------|------2-2-2-2-2-2-2-2-2-2-2-2-2-2-2--|
Eb :---2-2-(3*)-2-(3*)--2-2-(2*)-2-(2*)--|--12\-0-0-0-0-0-0-0-0-0-0-0-0-0-0-0--|
                                                  x x   x x   x x   x x   x

Chorus

eb :------------------------------------|------------------------------------|
Bb :------------------------------------|------------------------------------|
Gb :-----------7-------9\---------------|-----------7-------9\---------------|
Db :---4-------7--7-7--9\--4/5\4-4/5\4--|---4-------7--7-7--9\---------------|
Ab :---4--4-4--5--5-5--7\--2/3\2-2/3\2--|---4--4-4--5--5-5--7\--2-2-2-2-2-2--|
Eb :---2--2-2---------------------------|---2--2-2--------------0-0-0-0-0-0--|
          x x     x x                          x x     x x      x x x x x x


Perhaps I'll take a shot at tabbing the solo some time, but not now.
            
Submit corrections

↑ Back to top | Tablatures and chords for acoustic guitar and electric guitar, ukulele, drums are parodies/interpretations of the original songs. You may use it for private study, scholarship, research or language learning purposes only