» » »

Black Dahlia Murder - Warborn Bass

Artists:  A B C D E F G H I J K L M N O P Q R S T U V W X Y Z # 

Warborn Bass

(ver. 1) Click to play this song!
Black Dahlia Murder
 Rating:
4/5 (4 votes)


 Warborn lessons Tabs too difficult? Try these video lessons and learn fast
 
                Warborn
The Black Dahlia Murder
Nocturnal


Tempo:161

D#|-----------------------------------------------------|
A#|-----------------------------------------------------|
F |--5-55-5-5-5----5-55-5-5-5----5-55-5-5-5-----44-4-4-4|x4
C |------------------------------------------4----------|		

|------------------------------------------|
|------------------------------------------|     
|----3--------------------5---5—4-4-4-4-4-4|
|3-3---3-3-3-5-5-----6-6----6--------------|

|-----------------------------------|
|-----------------------------------|
|-----------------------------------|x2
|--5--0-5-0-0—5—0-5-0-0-------------|

|------------------------------|
|------------------------------|
|------------------------------|
|--4—-0-4-0-0-4-0-4-0-0--------| 

|-----------------------------------|
|-----------------------------------|
|-----------------------------------|x3
|--5--0-5-0-0—5—0-5-0-0-------------|

|------------------------------|
|------------------------------|
|------------------------------|
|--4—-0-4-0-0-4-0-4-0-0--------| 

|-----------------------------------|
|-----------------------------------|
|-----------------------------------|
|--5--0-5-0-0—5—0-5-0-0-------------|

|-----------------------------------------------------|
|-----------------------------------------------------| 
|--5-55-5-5-5----5-55-5-5-5----5-55-5-5-5-----44-4-4-4|x4
|------------------------------------------4----------|

|----------------------------------------------------------|
|----------------------------------------------------------|    
|------3-3---------------------------4-4-4-4-4-4-----------|
|-3-3-------3-3-5-5-5----6--6-6--6-------------------------|

|-------------------|    
|-------------------|      
|-5\5-5—-5\--5-5-5--|x2  
|-------------------|    

|------------------------------------------------------|
|------------------------------------------------------|    
|------------------------5--3---1--1----5—1-4-4-4-4-4-4|
|---3--3---3--3---3--3---------------3-----------------|

|---------------------------------------------------|
|---------------------------------------------------|    
|---------------------------------------------------|x2
|5-5-5-5-5-5-5-5-5-5-5-5--6-6-6-6-6-6-3-3-3-3-3-3---|

|-------------------------------------------------------------------------|
|-------------------------------------------------------------------------| 	
|-------------------------------------------------------------------------|
|0-0-0-0-0-0-0-0-0-0-0-0--1-1-1-1-1-1-1-1-1-1-1-1--3-3-3-3-3-3-3-3-3-3-3-3|

|----------------------------|
|----------------------------| 	
|----------------------------|
|0-0-0-0-0-0-0-0-0-0-0-0-----|








|-----------------------------------------------|
|-----------------------------------------------| 	
|5-55-5-5-5----5-55-5-5-5---5---8—7—-4—44—4-4-4-|
|-----------------------------------------------|

|-----------------------------------------------------| Repeat Both Twice
|-----------------------------------------------------| 	
|5-55-5-5-5----5-55-5-5-5---5---8—7/-12—12—12-12-12-12|
|-----------------------------------------------------|

|----------------------------------------------------------------------------|
|----------------------------------------------------------------------------|     
|----------------------------------------------------------------------------|
|3-3-3-3-3-3-3-3-3-1-1-1---5-5-5-5-5-5-5-5-5-3-3-3—-3-3-3-3-3-3-3-3-3-3-3-3--|

|----------------------------|
|----------------------------|     
|----------------------------|
|1-1-1-1-1-1-1-1-1-1-1-1-----| Repeat Both Twice

Then...
|----------------------------------------------------------------------------|
|----------------------------------------------------------------------------|     
|---------------------------------------------------------------0-0-0-0-0-0--|
|5-5-5-5-5-5-5-5-5-3-3-3---3-3-3-3-3-3-3-3-3-3-3-3—-0-0-0-0-0-0--------------|

|---------------------------------------------------------------------------------|
|-----------------------5---------------------------------------------------------|     
|5-5-5-5-5-5-5-5-5--7-8-----4-4-4-4-4-4-4-4-4—7-8-5—-8-8-8-8-8-8-8-8-7-8-5--------|
|---------------------------------------------------------------------------------|

|---------------------------------------------------------------------------------|
|-----------------------------------------------5---------------------------------|    
|4-4-4-4-4----------------5-5-5-5-5-5-5-5--5-7-8----4-4-4-4-4-4-4-4-4—-7-8-5------|
|----------0-3-3-3-3-3-3----------------------------------------------------------|

|---------------------------| |6-6-6-6-6---0-0-0-0-0-0-|
|---------------------------| |------------------------|
|---------------------------| |------------------------|
|8-8-8-8-8-8-8-8-8—7-8--10--| |----------0-------------|

|----------------------------------------------------------------------------------|
|----------------------------------------------------------------------------------|     
|----------------------------------------------------------------------------------|
|5-3-3-3-3-3-5-3-3-3-0-3---6-6-6-6-6-6-6-6-6-6-6-6—-1-1-1-1-1-1-1-1-1-1-3-1--------|

|-------------------------|
|-------------------------|     
|-------------------------|
|1-0-0-0-0-0-0-0-1-0-5-0--|

|----------------------------------------------------------------------------------|
|----------------------------------------------------------------------------------|     
|----------------------------------------------------------------------------------|
|5-3-3-3-3-3-5-3-3-3-0-3---6-6-6-6-6-6-6-6-6-6-6-6—-1-1-1-1-1-1-1-1-1-1-3-1--------|

|-------------------------|
|-------------------------|     
|-------------------------|
|1-0-0-0-0-0-0-0-1-0-0-0--|

|----------------------------------------------------------|
|----------------------------------------------------------|    
|------3-3---------------------------4-4-4-4-4-4-----------|
|-3-3-------3-3-5-5-5----6--6-6--6-------------------------|

|---------------------------------------------------|
|---------------------------------------------------|    
|---------------------------------------------------|x2
|5-5-5-5-5-5-5-5-5-5-5-5--6-6-6-6-6-6-3-3-3-3-3-3---|

|-------------------------------------------------------------------------|
|-------------------------------------------------------------------------| 	
|-------------------------------------------------------------------------|
|0-0-0-0-0-0-0-0-0-0-0-0--1-1-1-1-1-1-1-1-1-1-1-1--3-3-3-3-3-3-3-3-3-3-3-3|


|----------------------------|
|----------------------------| 	
|----------------------------|
|0-0-0-0-0-0-0-0-0-0-0-0-----|

|-----------------------------------------------------|
|-----------------------------------------------------|
|--5-55-5-5-5----5-55-5-5-5----5-55-5-5-5-----44-4-4-4|x4
|------------------------------------------4----------|		

|--------------------------------------------------------------|
|--------------------------------------------------------------|
|--0-00-0-0-0/8----5-55\0-0-----0-00-0-0-0\--------------------|
|-------------------------------------------4---44-4-4-4-------|		

|---------------------------------------------------------------|
|---------------------------------------------------------------|
|--0-00-0-0-0\------------------------0-00-0-0-0/8-----55-5\0---|
|--------------4----4---44-4-4-4-------------------------------4|

|---------------------------------------------------------------|
|---------------------------------------------------------------|
|----------------44-4-4-4-4--------0-00-0-0-0/8-----55-5\0-0----|
|--4-44-4-4-4--4------------------------------------------------|

|---------------------------------------------------------------|
|---------------------------------------------------------------|
|--0-00-0-0-0\------------------------0-00-0-0-0/8-----55-5\0-0-|x6
|--------------4----4---44-4-4-4--------------------------------|

|------------------------------------|
|------------------------------------|
|0-00-0-0-0\-------------------------|
|--------------4-44-4-4-4------------|
            
Submit corrections



        Warborn lessons Hard to play? Try these video lessons and learn fast Warborn lessons
        
↑ Back to top | Tablatures and chords for acoustic guitar and electric guitar, ukulele, drums are parodies/interpretations of the original songs. You may use it for private study, scholarship, research or language learning purposes only