» » »

Black Dahlia Murder - Miscarriage Tabs

Artists:  A B C D E F G H I J K L M N O P Q R S T U V W X Y Z # 

Miscarriage Tabs

(ver. 1) Click to play this song!
Black Dahlia Murder
 Rating:
4/5 (4 votes)


 Miscarriage lessons Tabs too difficult? Try these video lessons and learn fast
 
                Tuning:D flat

e|-------------------------------------------------------------------------|
B|--------------------10~----9~----9p10p9p--/--7--7---9p10p9p---/-7~-------|
G|-----------------11------------------------------------------------------|
D|------------11-----------------------------------------------------------|
A|--9---12-----------------------------------------------------------------|
E|-------------------------------------------------------------------------|

e|-------------------------------------------------------------------------|
B|----------------10~----9~------------------------------------------------|
G|------------11-----------------------------------------------------------|
D|-------11----------------------------------------------------------------|
A|---12--------------------------------------------------------------------|
E|-------------------------------------------------------------------------|

e|-------------------------------------------------------------------------|
B|----9p10p9p--/-7---7--9-10--12--12/--15~---------------------------------|
G|-------------------------------------------------------------------------|
D|-------------------------------------------------------------------------|
A|-------------------------------------------------------------------------|
E|-------------------------------------------------------------------------|

e|-------------------------------------------------------------------------|
B|---/15--14--12p14p12p-----12---------------------------------------------|
G|-----------------------14-----14-13~-----11--13-14-13-11-10-11~----------|
D|-------------------------------------------------------------------------|
A|-------------------------------------------------------------------------|
E|-------------------------------------------------------------------------|

e|-------------------------------------------------------------------------|
B|-------------------------------------------------------------------------|
G|------6--7p6--7p6--4--6~----\14--12--9p10p9p 9p10p9p---------------------|
D|--------------------------------------------------------11~--------------|
A|-------------------------------------------------------------------------|
E|-------------------------------------------------------------------------|

e|-------------------------------------------------------------------------|
B|-------\14--12--9p10p9p 9p10p9p------------------------------------------|
G|----------------------------------11~------------------------------------|
D|-------------------------------------------------------------------------|
A|-------------------------------------------------------------------------|
E|-------------------------------------------------------------------------|

e|-------------------------------------------------------------------------|
B|---------/14--10---------------10--------14~-----------------------------|
G|------------------11-------11--------------------------------------------|
D|----------------------12-------------------------------------------------|
A|-------------------------------------------------------------------------|
E|-------------------------------------------------------------------------|

thats all i could get figure out  if you figure out the rest e-mail it 2 me

| /  slide up
| \  slide down
| h  hammer-on
| p  pull-off
| ~  vibrato
| +  harmonic
| x  Mute note
            
Submit corrections



        Miscarriage lessons Hard to play? Try these video lessons and learn fast Miscarriage lessons
        
↑ Back to top | Tablatures and chords for acoustic guitar and electric guitar, ukulele, drums are parodies/interpretations of the original songs. You may use it for private study, scholarship, research or language learning purposes only