» » »

Billy Currington - Good Directions Tabs

Artists:  A B C D E F G H I J K L M N O P Q R S T U V W X Y Z # 

Good Directions Tabs

(ver. 3) Click to play this song!
Billy Currington
 Rating:
4/5 (4 votes)

 Good Directions lessons Tabs too difficult? Try these video lessons and learn fast
 
                Billy Currington: Good Directions 
Billy Currington:Good Directions (Intro) 


Note:Use a slide on an acoustic guitar or dobro for  
all slides marked in tab. Enjoy !~ Cal 

E----------------------------------------------------------- 
B-------------------3-----------------------3---------5-6-6- 
G---------------------5-----------------------------7------- 
D-----------5/7-5/7-----5/7\5p3-5p3-5/7-5/7---5/7-3--------- 
A-----3-5p3------------------------------------------------- 
E-3/5------------------------------------------------------- 


E-----------------------------------8----------------------- 
B-5-------------------------------8------------------------- 
G---7-5-7-7-5-------------------9--------------------------- 
D-------------7\5p3-5-3----8/10----------------------------- 
A----------------------------------------------------------- 
E-----------------------------------------------------------
            
Submit corrections


        Good Directions lessons Hard to play? Try these video lessons and learn fast Good Directions lessons
        
↑ Back to top | Tablatures and chords for acoustic guitar and electric guitar, ukulele, drums are parodies/interpretations of the original songs. You may use it for private study, scholarship, research or language learning purposes only