» » »

Between The Buried And Me - Virdian Bass

Artists:  A B C D E F G H I J K L M N O P Q R S T U V W X Y Z # 

Virdian Bass

(ver. 1) Click to play this song!
Between The Buried And Me
 Rating:
4/5 (4 votes)


 Virdian lessons Tabs too difficult? Try these video lessons and learn fast
 
                -------------------------------------------------------------------------------
			     Viridian - Between the Buried and Me
-------------------------------------------------------------------------------


Hey this is the bass tab to the song "Viridian" by Between the Buried and Me.
Dan Briggs plays this solo on a 24 fret bass, and the minimum number frets to 
play it at C# (BTBAM's tuning) is a 23. However if you only have 22 (which is 
usually the normal number of frets on most basses) just tune to D standard 
and play the transcribed notes on fret lower than written. 
This is a very tough song to learn and play and Dan comes in at some really
strange times, so take it nice and slowly and keep at it! When you finally get
it down it sounds amazing.

Tuning: C# Standard

-Intro- (0.05 - 0.35)

G|--------------------------------------------------------------------------|
D|--------------------------------------------------------------------------|
A|-4--------(X4)------------------------------------------------------------|
E|----4-7-5-------7---5---2---0---------------------------------------------|

Solo (Starts 0.46)

G|-9----9-9---9--12-11-9---19/21---19-17-16---------------------------------|
D|---10-------------------------------------19----17-19--17h19p17-16--------|
A|---------------------------------------------19--------------------17-----|
E|--------------------------------------------------------------------------|

                                                                    +  +
G|-----------------------11-12-14-21-19/23-19-------------19/21-19--5-------|
D|----------9-10-9-10-12-------------------------16h17p16-----------5--4----|
A|-3-5-9-10-----------------------------------------------------------------|
E|--------------------------------------------------------------------------|


G|-21/19-19------------------16-18-19/21-18---------18-23--21--19--18-------|
D|------------------16-17-19------------------19-21-------------------19----|
A|------------17-19------------------------------------------------------21-|
E|--------------------------------------------------------------------------|


G|-18h19-18------------18----------16-----------13h14-11-13-13~~~~----------|
D|------------18h19-19----18h19-19----14h16-14------------------------------|
A|--------------------------------------------------------------------------|
E|--------------------------------------------------------------------------|




G|-14-13-11-----------------------------------------7-----------9-----------|
D|----------14-12-11----------------------------6-7---------6-7-------------|
A|-------------------14-12-11-9-10----------5-7---------5-7-----------------|
E|---------------------------------10~~~------------------------------------|


G|-9------------14-13-11-----------------16-14-13----------------13-14-13---|
D|---12-11-9-11----------14-12-11-12~~~-----------16-14-12-14-16------------|
A|--------------------------------------------------------------------------|
E|--------------------------------------------------------------------------|

                                      
G|-----------------------------16-----------------14-13---------/19-18-16---|
D|-16-14-12-11-12-14~~~--16-18----18-18~~~--12-14---------12-14-----------19|
A|--------------------------------------------------------------------------|
E|--------------------------------------------------------------------------|


G|-17/19---21/23-21/23-21~~~---23(b)-23-------------------------------------|
D|--------------------------------------------------------------------------|
A|--------------------------------------------------------------------------|
E|---------------------------------------0-0--------------------------------|


G|-18-20-18-20-23-20-18-20-18-20-18-16-21-20-18-16-18-18-20-18-20-23-20-18--|
D|--------------------------------------------------------------------------|
A|--------------------------------------------------------------------------|
E|--------------------------------------------------------------------------|


                     +    +        +
G|-20-16-18-20-21-23-4------------------------------------------------------|
D|------------------------7-------------------------------------------------|
A|-----------------------------6--------------------------------------------|
E|---------------------------------12---------------------------------------|

| /  slide up
| \  slide down
| h  hammer-on
| p  pull-off
| ~  vibrato
| +  harmonic
| x  Mute note
===============================================================================
            
Submit corrections



        Virdian lessons Hard to play? Try these video lessons and learn fast Virdian lessons
        
↑ Back to top | Tablatures and chords for acoustic guitar and electric guitar, ukulele, drums are parodies/interpretations of the original songs. You may use it for private study, scholarship, research or language learning purposes only