Home » B » Bernard Fanning »

Bernard Fanning - Songbird Tabs

Artists:  A B C D E F G H I J K L M N O P Q R S T U V W X Y Z # 

Songbird Tabs

(ver. 2) Click to play this song!
Bernard Fanning
 Rating:
4/5 (6 votes)
                (Intro)


Its my first tab, be kind. listen to the song, the strumming pattern is similar.

Tuning:EADGBE

capo 2nd fret but it doesnt sound too bad without one

e|-------0-0--------0-0----------2-2-3-2----x-x------------------------------|
B|-------0-0--------0-0----------3-3-3-3----x-x------1-1---------1-1---------|
G|-------0-0--------0-0----------2-2-2-2----x-x------0-0---------0-0---------|
D|-------2-2---0h2--2-2------0---0-0-0-0----x-x------2-2--0h2----2-2---------|
A|--2----2-2--------2-2---------------------------3--3-3---------3-3---------|
E|--0----0-0--------0-0-------------------------------------------------3----|

e|--3-3-3-3---x-x----2-2-2-2----x-x-----------------x-x--2-2-2-2-----x-x----|
B|--3-3-3-3---x-x----3-3-3-3----x-x------1-1--------x-x--3-3-3-3-----x-x----|
G|--0-0-0-0---x-x----4-4-4-4----x-x------0-0--------x-x--4-4-4-4-----x-x----|
D|--0-0-0-0---x-x----4-4-4-4----x-x------2-2----0h2-x-x--4-4-4-4-----x-x----|
A|--2-2-2-2---x-x----2-2-2-2----x-x---3--3-3--------x-x--2-2-2-2-----x-x----|
E|--3-3-3-3---x-x-----------------------------------------------------------|

e|-----------------------|
B|------1-1--------------|
G|------0-0--------------|
D|------2-2--0h2---------|
A|--3---3-3--------------|
E|-----------------------|


this tab isnt 100 % correct but its pretty close

| /  slide up
| \  slide down
| h  hammer-on
| p  pull-off
| ~  vibrato
| +  harmonic
| x  Mute note
===============================================================================
            
Submit corrections

↑ Back to top | Tablatures and chords for acoustic guitar and electric guitar, ukulele, drums are parodies/interpretations of the original songs. You may use it for private study, scholarship, research or language learning purposes only