» » »

Bela Fleck And The Flecktones - Sinister Minister Bass

Artists:  A B C D E F G H I J K L M N O P Q R S T U V W X Y Z # 

Sinister Minister Bass

(ver. 1) Click to play this song!
Bela Fleck And The Flecktones
 Rating:
2.2/5 (10 votes)


 Sinister Minister lessons Tabs too difficult? Try these video lessons and learn fast
 
                this is the first verse and chorus of Sinister Minister.



ever note is thumbed
every note you see twice in a row is double thumbed
x=mute

Verse Part 1:
G---------------------------------------------------------------------------|
D---------------------------------------------------------------------------|
A-5-5-x-5/8-8-x-8\7-7-x-7/10-10-x-10\8-8-x-8/12-12-x-12/13-13-12-10-8-x-7-x-|
E---------------------------------------------------------------------------|

play this twice

G----7-------10------9--------12-------10----------14|-----------------10--9-|
D----------------------------------------------------|-----------------------|
A-5----5/8-8-----8\7---7/10-10-----10\8-----8/12-12--|-12/13-13-12-10-8---7--|
E----------------------------------------------------|-----------------------|
                                                       Ending the first time


G-------15----------17----18-|
D----------------------------|
A-12/13----13-14-15----16----|
E----------------------------|

Ending the Second Time Through

Verse Part 2
G----19---------------17----------16------16----------14--------13--| B
D-----------19------------------------------------------------------| A
A-17---17-------17\15----15\14-14----13/14---14\12-12-----14\11-----| C
E---------17--------------------------------------------------------| K
                                                          into second ending

Brdige Into Chorus:
start right after verse part 2, not back into second ending!!!!

G-----15----------------|-----14----------------|
D--------------------13-|------------------12---|
A--13----12---10--------|--12----10--8----------|
E-----------------11----|---------------10------|
play this part twice, listen for the skipped beat, then play again 2 more times into the CHORUS:

CHORUS:
G-------------14----12----------10----9----7---------------|
D----------------------------------------------------------|
A-15/16\15/16----15----13\12/13----12---11---10-8----------|
E----------------------------------------------------------|

second verse is just a little too much for me to get, if you can pick it up, feel free 

****************************************************************************
all work is for private practice purposes only, and is the property of the artist. NOT FOR DUPLICATION
****************************************************************************
            
Submit corrections



        Sinister Minister lessons Hard to play? Try these video lessons and learn fast Sinister Minister lessons
        
↑ Back to top | Tablatures and chords for acoustic guitar and electric guitar, ukulele, drums are parodies/interpretations of the original songs. You may use it for private study, scholarship, research or language learning purposes only