» » »

Beatles - Sgt Peppers Lonely Hearts Club Band Reprise Tabs

Artists:  A B C D E F G H I J K L M N O P Q R S T U V W X Y Z # 

Sgt Peppers Lonely Hearts Club Band Reprise Tabs

(ver. 1) Click to play this song!
Beatles
 Rating:
4/5 (4 votes)

 Sgt Peppers Lonely Hearts Club Band Reprise  lessons Tabs too difficult? Try these video lessons and learn fast
 
                 Intro
  Q=116
 4/4
  Gtr I
  H    Q  E  S     +S    Q  Q  H      W          W          W
|----------------------|------------|----------|----------|------|
|-----------11b13-(11)-|-8----------|----------|----------|------|
|----------------------|------------|----------|----------|------|
|----------------------|------------|----------|----------|------|
|----------------------|------------|----------|----------|------|
|----------------------|------------|----------|----------|------|


                        F
  W          W            E  S S  E.   S  S S E  E.   S
|----------|----------|---------------------------------|
|----------|----------|---------------------------------|
|----------|----------|---------------------------------|
|----------|----------|---3--3-3--3----3--3-3-3--3----3-|
|----------|----------|---------------------------------|
|----------|----------|---------------------------------|
|
| Gtr II
| W          W            E  E    E  E    E   E  E  E
|----------|----------|---------------------------------|
|----------|----------|----------10-------------10------|
|----------|----------|----------10-------------10------|
|----------|----------|-(10)-----10------10-----10------|
|----------|----------|--(8)--------------8-------------|
|----------|----------|---------------------------------|


   E S S  E.   S  E S S  E.   S
|--------------------------------|
|--------------------------------|
|--------------------------------|
|--3-3-3--3----3--3-3-3--3----3--|
|--------------------------------|
|--------------------------------|
|
|  E E    E  E    E E    E  E
|--------------------------------|
|--------10-------------10-------|
|--------10-------------10-------|
|-10-----10------10-----10-------|
|--8--------------8--------------|
|--------------------------------|


   E S S  E.   S  E S S  E.   S
|-------------------------------|
|-------------------------------|
|-------------------------------|
|--3-3-3--3----3--3-3-3--3----3-|
|-------------------------------|
|-------------------------------|
|
|  E E    E  E    E E    E  E
|-------------------------------|
|--------10-------------10------|
|--------10-------------10------|
|-10-----10------10-----10------|
|--8--------------8-------------|
|-------------------------------|


                                Verse
                                 F        Ab
   E S S  E S S  E S S  E S S     W
|-----------------------------||-------------------|
|-----------------------------||-------------------|
|-----------------------------||-------------------|
|--3-3-3--3-3-3--3-3-3--3-3-3-||-------------------|
|-----------------------------||-------------------|
|-----------------------------||-------------------|
|
|  E E    E E    E E    E E       E  E Q   E E Q
|-----------------------------||-------------------|
|--------10------------10-----||-10-10----13-------|
|--------10------------10-----||-10-10----13-------|
|-10-----10-----10-----10-----||-10-10----13-------|
|--8-------------8------------||--8--8----11-------|
|-----------------------------||-------------------|


  Bb        F                  Bb
   W                        W
|-------------------------|-----------------|
|-------------------------|-----------------|
|-------------------------|-----------------|
|-------------------------|-----------------|
|-------------------------|-----------------|
|-------------------------|-----------------|
|
|  E E Q  E   E    E   E    Q   E E Q   E E
|-------------------------|-----------------|
|-15--------(13)-(13)(13)-|----15------15---|
|-15---------14---13h=14--|----15------15---|
|-15---------15---15-(15)-|----15------15---|
|-13---------15---15-(15)-|----13------13---|
|------------13---13-(13)-|-----------------|


        F                                    Ab
         |-3-|
  E S S  S S S E E Q        +e    W
|-------------------------------|------------------|
|---6-4-------------------------|------------------|
|--------5s3p1-3---1b2------(1)-|------------------|
|-------------------------------|------------------|
|-------------------------------|------------------|
|-------------------------------|------------------|
|
| Q      E     E Q       E   E    Q   E E Q   E E
|-------------------------------|------------------|
|-------13-------------(13)(13)-|----13------13----|
|-------13--------------13h=14--|----13------13----|
|-------15--------------15-(15)-|----15------13----|
|-------15--------------15-(15)-|----15------11----|
|-------13--------------13-(13)-|----13------------|


        Bb                  G
  W                      W
|----------------------|------------------|
|----------------------|------------------|
|----------------------|------------------|
|----------------------|------------------|
|----------------------|------------------|
|----------------------|------------------|
|
| Q   E E Q   a   E  E   Q   E E Q   E  E
|----------------------|------------------|
|----15---------(13)---|----12------12\---|
|----15------13h=14----|----12------12\---|
|----15----------15----|----12------12\---|
|----13----------15----|----10------10\---|
|----------------13----|------------------|


  N.C.                              Bb
                           ~~~
  E  E        +E   +E  Q  +Q     W
|------------------------------|-----------------|
|---11b12.5==(11)r(11)-8--(8)--|-----------------|
|------------------------------|-----------------|
|------------------------------|-----------------|
|------------------------------|-----------------|
|------------------------------|-----------------|
|
| W                              Q   E E Q   E E
|------------------------------|-----------------|
|------------------------------|----15------15---|
|------------------------------|----15------15---|
|------------------------------|----15------15---|
|------------------------------|----13------13---|
|------------------------------|-----------------|


                                                            Chorus
     F                  G                   Dm       D          G       Bb
                                                 ~~
  W                  W                 a Q   Q   Q.     E    W
|------------------|-----------------|--------------------||-----------------|
|------------------|-----------------|--------------------||-----------------|
|------------------|-----------------|-5h7---5---7--------||-----------------|
|------------------|-----------------|--------------------||-----------------|
|------------------|-----------------|--------------------||-----------------|
|------------------|-----------------|--------------------||-----------------|
|
| Q   E  E Q   E E   Q   E E Q   E E     Q   E E Q    E E    Q   E E Q   E E
|------------------|-----------------|--------------------||-----------------|
|----10\------10---|----12------12---|------10-------10---||----12------15---|
|----10\------10---|----12------12---|------10-------11---||----12------15---|
|----10\------10---|----12------12---|------12-------12---||----12------15---|
|-----8\-------8---|----10------10---|------12-------12---||----10------13---|
|------------------|-----------------|------10-------10---||-----------------|


     C       G         C
  W                 W
|-----------------|-----------------|
|-----------------|-----------------|
|-----------------|-----------------|
|-----------------|-----------------|
|-----------------|-----------------|
|-----------------|-----------------|
|
| Q   E E Q   E E   Q   E E Q   E E
|-----8-----------|-----8-------8---|
|-----8------12---|-----8-------8---|
|-----9------12---|-----9-------9---|
|----10------12---|----10------10---|
|----10------10---|----10------10---|
|-----8-----------|-----8-------8---|


        G                                       Bb
         ~~~                   ~~~~~~~~
  E S S  E.       S S E S  S S E   +Q    Q   H
|--------------------------------|-------------------|
|---8p6--8--------8p6-8----8p6-8-|-(8)---------------|
|--------------------------------|-------------------|
|--------------------------------|-------------------|
|--------------------------------|-------------------|
|--------------------------------|-------------------|
|
| Q      E   +E     Q      E   E    Q    E E Q   E E
|--------------------------------|-------------------|
|-------12--(12)\---------12-----|------12------15---|
|-------12--(12)\---------12-----|------12------15---|
|-------12--(12)\---------12-----|------12------15---|
|-------10--(10)\---------10-----|------10------13---|
|--------------------------------|-------------------|


     C       G         A
  W                 W
|-----------------|----------------|
|-----------------|----------------|
|-----------------|----------------|
|-----------------|----------------|
|-----------------|----------------|
|-----------------|----------------|
|
| Q   E E Q   E E   Q  E E Q  E  E
|-----8-----------|----5------5\---|
|-----8------12---|----5------5\---|
|-----9------12---|----6------6\---|
|----10------12---|----7------7\---|
|----10------10---|----7------7\---|
|-----8-----------|----5------5\---|


  N.C.                                       C
                             ~~~~~~~
  E  S      +S   S      +S   E  +Q   Q    W
|---------------------------------------|-------------------|
|---13pb14r(13)-13pb15r(13)-10-(10)-----|-------------------|
|---------------------------------------|-------------------|
|---------------------------------------|-------------------|
|---------------------------------------|-------------------|
|---------------------------------------|-------------------|
|
| W                                       Q   E E Q   E E
|---------------------------------------|-----8-------8-----|
|---------------------------------------|-----8-------8-----|
|---------------------------------------|-----9-------9-----|
|---------------------------------------|----10------10-----|
|---------------------------------------|----10------10-----|
|---------------------------------------|-----8-------8-----|


     G               A               C
  Gtr II
  Q  E E Q  E E   Q  E E Q  E E   Q   E E Q   E E   Q   E E Q   E E
|----3------3---|----5------5---|-----8-------8---|-----8-------8---|
|----3------3---|----5------5---|-----8-------8---|-----8-------8---|
|----4------4---|----6------6---|-----9-------9---|-----9-------9---|
|----5------5---|----7------7---|----10------10---|----10------10---|
|----5------5---|----7------7---|----10------10---|----10------10---|
|----3------3---|----5------5---|-----8-------8---|-----8-------8---|


        G                           Bb
  Gtr I
  E S S E E S E   +S  Q     E Q     +E  a Q  E E
|-------------------------|----------------------|
|-------------------------|------------------6---|
|-------------3b4-(3)-----|---5b7r==(5)-5s7------|
|---3-3-5-3-5-------------|----------------------|
|-------------------------|----------------------|
|-------------------------|----------------------|
|
| Gtr II
| Q     E E Q         E E   Q     E  E    Q  E E
|-------3-------------3---|-------6----------6---|
|-------3-------------3---|-------6----------6---|
|-------4-------------4---|-------7----------7---|
|-------5-------------5---|-------8----------8---|
|-------5-------------5---|-------8----------8---|
|-------3-------------3---|-------6----------6---|


              C                      G
                    |--3---|
  E  Q         +E   Q     +E   E E    S      +S   +E   +H.         +W
|----------------------------------|-13b15==(13)-(13)-(13)------|-(13)r----*|
|---11pb13r===(11)-11b13r(11)p=8---|----------------------------|----------*|
|----------------------------------|----------------------------|----------*|
|----------------------------------|----------------------------|----------*|
|----------------------------------|----------------------------|----------*|
|----------------------------------|----------------------------|----------*|
|
| Q         E   E   Q          E E    W                            +W
|-----------8------------------8---|--3-------------------------|--(3)-----*|
|-----------8------------------8---|--3-------------------------|--(3)-----*|
|-----------9------------------9---|--4-------------------------|--(4)-----*|
|----------10-----------------10---|--5-------------------------|--(5)-----*|
|----------10-----------------10---|--5-------------------------|--(5)-----*|
|-----------8------------------8---|--3-------------------------|--(3)-----*|
            
Submit corrections


        Sgt Peppers Lonely Hearts Club Band Reprise  lessons Hard to play? Try these video lessons and learn fast Sgt Peppers Lonely Hearts Club Band Reprise  lessons
        
↑ Back to top | Tablatures and chords for acoustic guitar and electric guitar, ukulele, drums are parodies/interpretations of the original songs. You may use it for private study, scholarship, research or language learning purposes only