» » »

Beatles - Searchin Tabs

Artists:  A B C D E F G H I J K L M N O P Q R S T U V W X Y Z # 

Searchin Tabs

(ver. 1) Click to play this song!
Beatles
 Rating:
2.8/5 (21 vote)

 Searchin  lessons Tabs too difficult? Try these video lessons and learn fast
 
                e |------------------------------------------------------------| 
B |------------------------------------------------------------| 
G |------------------------------------------------------------| 
D |--------3----5b---5b-5b-5b----3h5---------------------------| 
A |----3h5----5----------------------5---------/5---3------8---| 
E |--5--------------------------------------------5----/10-----|


e |----------------------------------------------------------| 
B |----------------------------------------------------------| 
G |----------------------------------------------------------| 
D |-------10--------10-------------------10------------------| 
A |--10/12-----10/12-----12/10------10/12------12/10---------|
E |----------------------------------------------------------|


e |---------------------------------------------10-13--------| 
B |----------------------------------------10-13-------------| 
G |--------10-------------------10----10-12------------------| 
D |--7/12-----12----/12---10-12----12------------------------| 
A |--------------------12------------------------------------| 
E |----------------------------------------------------------|

e|--10-------------------------------------------------------------------| 
B|-----------10---------10--------10-------------------------------------| 
G|------12b14------12b14-----12b14---12-10-------12-10-------------------| 
D|----------------------------------------12---12------12----12--10/7----| 
A|--------------------------------------------------------------------5--| 
E|-----------------------------------------------------------------------|            
Submit corrections


        Searchin  lessons Hard to play? Try these video lessons and learn fast Searchin  lessons
        
↑ Back to top | Tablatures and chords for acoustic guitar and electric guitar, ukulele, drums are parodies/interpretations of the original songs. You may use it for private study, scholarship, research or language learning purposes only