» » »

Beatles - Please Mr Postman Tabs

Artists:  A B C D E F G H I J K L M N O P Q R S T U V W X Y Z # 

Please Mr Postman Tabs

(ver. 1) Click to play this song!
Beatles
 Rating:
4/5 (4 votes)

 Please Mr Postman  lessons Tabs too difficult? Try these video lessons and learn fast
 
                Gtr I (E A D G B E) - 'George Harrison - Electric Guitar'
Gtr II (E A D G B E) - 'John Lennon - Acoustic Guitar'


 Intro
  Q=139
  N.C.
 4/4
  Gtrs I, II
  W          W          H    E E E E   W
|----------|----------|--------------|------|
|----------|----------|--------------|------|
|----------|----------|--------------|------|
|----------|----------|--------------|------|
|----------|----------|--------0-----|------|
|----------|----------|----------0-1-|-2----|


                1st & 3rd Verses
                 A                                       F#m
  +W             E E E E +E  E E E   E E E E +E  E E E   E E E E +E  E E E
|------------||--0-0-0-0-(0)-0-0-0-|-0-0-0-0-(0)-0-0-0-|-2-2-2-2-(2)-2-2-2--|
|------------||o-2-2-2-2-(2)-2-2-2-|-2-2-2-2-(2)-2-2-2-|-2-2-2-2-(2)-2-2-2--|
|------------||--2-2-2-2-(2)-2-2-2-|-2-2-2-2-(2)-2-2-2-|-2-2-2-2-(2)-2-2-2--|
|------------||--2-2-2-2-(2)-2-2-2-|-2-2-2-2-(2)-2-2-2-|-4-4-4-4-(4)-4-4-4--|
|------------||o-0-0-0-0-(0)-0-0-0-|-0-0-0-0-(0)-0-0-0-|-4-4-4-4-(4)-4-4-4--|
|-(2)--------||--------------------|-------------------|-2-2-2-2-(2)-2-2-2--|


                      D
  E E E E +E  E E E   E E E E +E  E E E
|-2-2-2-2-(2)-2-2-2-|-2-2-2-2-(2)-2-2-2-|
|-2-2-2-2-(2)-2-2-2-|-3-3-3-3-(3)-3-3-3-|
|-2-2-2-2-(2)-2-2-2-|-2-2-2-2-(2)-2-2-2-|
|-4-4-4-4-(4)-4-4-4-|-0-0-0-0-(0)-0-0-0-|
|-4-4-4-4-(4)-4-4-4-|-------------------|
|-2-2-2-2-(2)-2-2-2-|-------------------|


                      E
  E E E E +E  E E E   E E E E +E  E E E
|-2-2-2-2-(2)-2-2-2-|-0-0-0-0-(0)-0-0-0--|
|-3-3-3-3-(3)-3-3-3-|-0-0-0-0-(0)-0-0-0--|
|-2-2-2-2-(2)-2-2-2-|-1-1-1-1-(1)-1-1-1--|
|-0-0-0-0-(0)-0-0-0-|-2-2-2-2-(2)-2-2-2--|
|-------------------|-2-2-2-2-(2)-2-2-2--|
|-------------------|-0-0-0-0-(0)-0-0-0--|


                      2nd & 4th Verses
                       A
  E E E E +E  E E E    E E E E +E  E E E
|-0-0-0-0-(0)-0-0-0-||-0-0-0-0-(0)-0-0-0-|
|-0-0-0-0-(0)-0-0-0-||-2-2-2-2-(2)-2-2-2-|
|-1-1-1-1-(1)-1-1-1-||-2-2-2-2-(2)-2-2-2-|
|-2-2-2-2-(2)-2-2-2-||-2-2-2-2-(2)-2-2-2-|
|-2-2-2-2-(2)-2-2-2-||-0-0-0-0-(0)-0-0-0-|
|-0-0-0-0-(0)-0-0-0-||-------------------|


                      F#m
  E E E E +E  E E E   E E E E +E  E E E
|-0-0-0-0-(0)-0-0-0-|-2-2-2-2-(2)-2-2-2--|
|-2-2-2-2-(2)-2-2-2-|-2-2-2-2-(2)-2-2-2--|
|-2-2-2-2-(2)-2-2-2-|-2-2-2-2-(2)-2-2-2--|
|-2-2-2-2-(2)-2-2-2-|-4-4-4-4-(4)-4-4-4--|
|-0-0-0-0-(0)-0-0-0-|-4-4-4-4-(4)-4-4-4--|
|-------------------|-2-2-2-2-(2)-2-2-2--|


                      D
  E E E E +E  E E E   E E E E +E  E E E
|-2-2-2-2-(2)-2-2-2-|-2-2-2-2-(2)-2-2-2-|
|-2-2-2-2-(2)-2-2-2-|-3-3-3-3-(3)-3-3-3-|
|-2-2-2-2-(2)-2-2-2-|-2-2-2-2-(2)-2-2-2-|
|-4-4-4-4-(4)-4-4-4-|-0-0-0-0-(0)-0-0-0-|
|-4-4-4-4-(4)-4-4-4-|-------------------|
|-2-2-2-2-(2)-2-2-2-|-------------------|


                      E
  E E E E +E  E E E   E E E E +E  E E E
|-2-2-2-2-(2)-2-2-2-|-0-0-0-0-(0)-0-0-0--|
|-3-3-3-3-(3)-3-3-3-|-0-0-0-0-(0)-0-0-0--|
|-2-2-2-2-(2)-2-2-2-|-1-1-1-1-(1)-1-1-1--|
|-0-0-0-0-(0)-0-0-0-|-2-2-2-2-(2)-2-2-2--|
|-------------------|-2-2-2-2-(2)-2-2-2--|
|-------------------|-0-0-0-0-(0)-0-0-0--|


                      Chorus
                      1.
                       A
  E E E E +E  E E E    E E E E +E  E E E
|-0-0-0-0-(0)-0-0-0-||-0-0-0-0-(0)-0-0-0-|
|-0-0-0-0-(0)-0-0-0-||-2-2-2-2-(2)-2-2-2-|
|-1-1-1-1-(1)-1-1-1-||-2-2-2-2-(2)-2-2-2-|
|-2-2-2-2-(2)-2-2-2-||-2-2-2-2-(2)-2-2-2-|
|-2-2-2-2-(2)-2-2-2-||-0-0-0-0-(0)-0-0-0-|
|-0-0-0-0-(0)-0-0-0-||-------------------|


                      F#m
  E E E E +E  E E E   E E E E +E  E E E
|-0-0-0-0-(0)-0-0-0-|-2-2-2-2-(2)-2-2-2--|
|-2-2-2-2-(2)-2-2-2-|-2-2-2-2-(2)-2-2-2--|
|-2-2-2-2-(2)-2-2-2-|-2-2-2-2-(2)-2-2-2--|
|-2-2-2-2-(2)-2-2-2-|-4-4-4-4-(4)-4-4-4--|
|-0-0-0-0-(0)-0-0-0-|-4-4-4-4-(4)-4-4-4--|
|-------------------|-2-2-2-2-(2)-2-2-2--|


                      D
  E E E E +E  E E E   E E E E +E  E E E
|-2-2-2-2-(2)-2-2-2-|-2-2-2-2-(2)-2-2-2-|
|-2-2-2-2-(2)-2-2-2-|-3-3-3-3-(3)-3-3-3-|
|-2-2-2-2-(2)-2-2-2-|-2-2-2-2-(2)-2-2-2-|
|-4-4-4-4-(4)-4-4-4-|-0-0-0-0-(0)-0-0-0-|
|-4-4-4-4-(4)-4-4-4-|-------------------|
|-2-2-2-2-(2)-2-2-2-|-------------------|


                      E
  E E E E +E  E E E   E E E E +E  E E E
|-2-2-2-2-(2)-2-2-2-|-0-0-0-0-(0)-0-0-0--|
|-3-3-3-3-(3)-3-3-3-|-0-0-0-0-(0)-0-0-0--|
|-2-2-2-2-(2)-2-2-2-|-1-1-1-1-(1)-1-1-1--|
|-0-0-0-0-(0)-0-0-0-|-2-2-2-2-(2)-2-2-2--|
|-------------------|-2-2-2-2-(2)-2-2-2--|
|-------------------|-0-0-0-0-(0)-0-0-0--|


                       2.
                        A
  E E E E +E  E E E     E E E E +E  E E E
|-0-0-0-0-(0)-0-0-0--||-0-0-0-0-(0)-0-0-0-|
|-0-0-0-0-(0)-0-0-0-o||-2-2-2-2-(2)-2-2-2-|
|-1-1-1-1-(1)-1-1-1--||-2-2-2-2-(2)-2-2-2-|
|-2-2-2-2-(2)-2-2-2--||-2-2-2-2-(2)-2-2-2-|
|-2-2-2-2-(2)-2-2-2-o||-0-0-0-0-(0)-0-0-0-|
|-0-0-0-0-(0)-0-0-0--||-------------------|


                      F#m
  E E E E +E  E E E   E E E E +E  E E E
|-0-0-0-0-(0)-0-0-0-|-2-2-2-2-(2)-2-2-2--|
|-2-2-2-2-(2)-2-2-2-|-2-2-2-2-(2)-2-2-2--|
|-2-2-2-2-(2)-2-2-2-|-2-2-2-2-(2)-2-2-2--|
|-2-2-2-2-(2)-2-2-2-|-4-4-4-4-(4)-4-4-4--|
|-0-0-0-0-(0)-0-0-0-|-4-4-4-4-(4)-4-4-4--|
|-------------------|-2-2-2-2-(2)-2-2-2--|


                      D
  E E E E +E  E E E   E E E E +E  E E E
|-2-2-2-2-(2)-2-2-2-|-2-2-2-2-(2)-2-2-2-|
|-2-2-2-2-(2)-2-2-2-|-3-3-3-3-(3)-3-3-3-|
|-2-2-2-2-(2)-2-2-2-|-2-2-2-2-(2)-2-2-2-|
|-4-4-4-4-(4)-4-4-4-|-0-0-0-0-(0)-0-0-0-|
|-4-4-4-4-(4)-4-4-4-|-------------------|
|-2-2-2-2-(2)-2-2-2-|-------------------|


                      E
  E E E E +E  E E E   E E E E +E  E E E
|-2-2-2-2-(2)-2-2-2-|-0-0-0-0-(0)-0-0-0--|
|-3-3-3-3-(3)-3-3-3-|-0-0-0-0-(0)-0-0-0--|
|-2-2-2-2-(2)-2-2-2-|-1-1-1-1-(1)-1-1-1--|
|-0-0-0-0-(0)-0-0-0-|-2-2-2-2-(2)-2-2-2--|
|-------------------|-2-2-2-2-(2)-2-2-2--|
|-------------------|-0-0-0-0-(0)-0-0-0--|


                       Outro
                        A                                   F#m
  E E E E +E  E E E     E E E E E E E E   E E E E E E E E   E E E E E E E E
|-0-0-0-0-(0)-0-0-0-||--0-0-0-0-0-0-0-0-|-0-0-0-0-0-0-0-0-|-2-2-2-2-2-2-2-2--|
|-0-0-0-0-(0)-0-0-0-||o-2-2-2-2-2-2-2-2-|-2-2-2-2-2-2-2-2-|-2-2-2-2-2-2-2-2--|
|-1-1-1-1-(1)-1-1-1-||--2-2-2-2-2-2-2-2-|-2-2-2-2-2-2-2-2-|-2-2-2-2-2-2-2-2--|
|-2-2-2-2-(2)-2-2-2-||--2-2-2-2-2-2-2-2-|-2-2-2-2-2-2-2-2-|-4-4-4-4-4-4-4-4--|
|-2-2-2-2-(2)-2-2-2-||o-0-0-0-0-0-0-0-0-|-0-0-0-0-0-0-0-0-|-4-4-4-4-4-4-4-4--|
|-0-0-0-0-(0)-0-0-0-||------------------|-----------------|-2-2-2-2-2-2-2-2--|


                                                       1.,2.
                    D                                   E
  E E E E E E E E   E E E E E E E E   E E E E E E E E   E E Q  H
|-2-2-2-2-2-2-2-2-|-2-2-2-2-2-2-2-2-|-2-2-2-2-2-2-2-2-|-0-----------|
|-2-2-2-2-2-2-2-2-|-3-3-3-3-3-3-3-3-|-3-3-3-3-3-3-3-3-|-0-----------|
|-2-2-2-2-2-2-2-2-|-2-2-2-2-2-2-2-2-|-2-2-2-2-2-2-2-2-|-1-----------|
|-4-4-4-4-4-4-4-4-|-0-0-0-0-0-0-0-0-|-0-0-0-0-0-0-0-0-|-2-----------|
|-4-4-4-4-4-4-4-4-|-----------------|-----------------|-2-----------|
|-2-2-2-2-2-2-2-2-|-----------------|-----------------|-0-----------|


              3.
               E
  W         3x E E E E E E E E   E E E E E E E E
|-----------||-0-0-0-0-0-0-0-0-|-0-0-0-0-0-0-0-0-*|
|----------o||-0-0-0-0-0-0-0-0-|-0-0-0-0-0-0-0-0-*|
|-----------||-1-1-1-1-1-1-1-1-|-1-1-1-1-1-1-1-1-*|
|-----------||-2-2-2-2-2-2-2-2-|-2-2-2-2-2-2-2-2-*|
|----------o||-2-2-2-2-2-2-2-2-|-2-2-2-2-2-2-2-2-*|
|-----------||-0-0-0-0-0-0-0-0-|-0-0-0-0-0-0-0-0-*|
            
Submit corrections


        Please Mr Postman  lessons Hard to play? Try these video lessons and learn fast Please Mr Postman  lessons
        
↑ Back to top | Tablatures and chords for acoustic guitar and electric guitar, ukulele, drums are parodies/interpretations of the original songs. You may use it for private study, scholarship, research or language learning purposes only