» » »

Beatles - Junk Tabs

Artists:  A B C D E F G H I J K L M N O P Q R S T U V W X Y Z # 

Junk Tabs

(ver. 1) Click to play this song!
Beatles
 Rating:
4/5 (4 votes)


 Junk lessons Tabs too difficult? Try these video lessons and learn fast
 
                1st Verse 

e-----3--3-3-3----2--3--2-2-2----0--2-0--3----0--0-0--2-3----0--0-0-0-0--- 
B-----0--0-0-0----0--0--0-0-0----0--0-0--0----0--0-0--0-0----0--0-0-0-0---
G----(0)---------(2)------------(0)----------(0)------------(0)-----------
C-----4-----------3--------------2------------0--------------0------------
G-------------------------------------------------------------------------
D-------------------------------------------------------------------------
    "Motor cars, ... 

e-----0---0-0-0-0-----------------------------------------
B-----0---0-0-0-0----------------1--0------------1--0-----
G----(0)-------------------------2--0------------2--0-----
C-----0----------------------2---------------2------------
G------------------------0-----------------0--------------
D---------------------------------------------------------
  ... ju - bi - lee"


2nd, 3rd, 4th Verse :

e----3--3-3--3----2--3-2--2-2----0--2-0--3----0--0-0--2-3----0---2-3---5--
B----0--0-0--0----0--0-0--0-0----0--0-0--0----0--0-0--0-0----0---0-0---0--
G---(0)----------(2)------------(0)----------(0)------------(0)-----------
C----4------------3--------------2------------0--------------0------------
G-------------------------------------------------------------------------
D-------------------------------------------------------------------------
    "Parachutes, ...

e-----0---0-0---3------------------------------------------
B-----0---0-0---0---------------1--0------------1--0-------
G----(0)------------------------2--0------------2--0-------
C-----0--------------------2----------------2--------------
G---------------------0------------------0-----------------
D----------------------------------------------------------
  ... jam - bo - ree"


1st, 3rd, 5th Chorus

e-----1----1-1------------------------------------------------------------
B-----1----1-1----4-4-----3--3-3-3-3------------3-3--3-3------0---1---3---
G----(0)----------0-0-----0--0-0-0-0------------2-2--2-2------0---0---0---
C-----0-------------------------------------------------------------------
G-------------------------0-----------------------------------0---0---0---
D-----------------------------------------0-------------------------------
     "Buy,						     ... window"


2nd, 4th, 6th Chorus

e-----1----1-1------------------------------------------------------------
B-----1----1-1----4-4-----3--3-3-3-3------------3-3--3-3-----0--0-0--0-0--
G----(0)----------0-0-----0--0-0-0-0------------2-2--2-2-----0--0-0--0-0--
C-----0-------------------------------------------------------------------
G-------------------------0----------------------------------0------------
D-----------------------------------------0-------------------------------
      "Why,					  ... in the yard"


Instrumental :

e-----3--3-3-3-3---2--2-2-2-2---0--0-0-0-0---0--0-0--2h3----0--0--2-3--5--
B-----0--0-0-0-0---0--0-0-0-0---0--0-0-0-0---0--0-0--0-0----0--0--0-0--0--
G----(0)----------(2)----------(0)----------(0)------------(0)------------
C-----4------------3------------2------------0--------------0-------------
G-------------------------------------------------------------------------
D-------------------------------------------------------------------------

e-----0---0-0---3-3-------------------------------------------
B-----0---0-0---0-0---------------1--0--------------1--0------
G----(0)--------------------------2--0--------------2--0------
C-----0-----------------------2------------------2------------
G------------------------0-------------------0----------------
D-------------------------------------------------------------

e-----3--3-3-3-3---2---3--2-2---0--2-0--3-3---0--0-0--0-0----0--2-3---5--
B-----0--0-0-0-0---0---0--0-0---0--0-0--0-0---0--0-0--0-0----0--0-0------
G----(0)----------(2)----------(0)-----------(0)------------(0)----------
C-----4------------3------------2-------------0--------------0-----------
G------------------------------------------------------------------------
D------------------------------------------------------------------------

e-----0---0-0--0-0--------------------------------------------
B-----0---0-0--0-0--------------------------------------------
G----(0)------------------------------------------------------
C-----0-------------------------------------------------------
G-------------------------------------------------------------
D-------------------------------------------------------------


Outro :
 
e-----3--0------------------------------------------------------0--------
B------------3--1----------------------------------------------0---------
G-------------------4--2--0-----------------------------------0----------
C------------------------------5/4--2------------------------2-----------
G----------------------------------------5---4---0----------0------------
D------------------------------------------------------------------------



1st Verse
2nd Verse
1st Chorus
2nd Chorus
3rd Verse
4th Verse
3rd Chorus
4th Chorus
5th Chorus
6th Chorus
Instrumental
Outro
            
Submit corrections



        Junk lessons Hard to play? Try these video lessons and learn fast Junk lessons
        
↑ Back to top | Tablatures and chords for acoustic guitar and electric guitar, ukulele, drums are parodies/interpretations of the original songs. You may use it for private study, scholarship, research or language learning purposes only