» » »

Beatles - Im A Loser Tabs

Artists:  A B C D E F G H I J K L M N O P Q R S T U V W X Y Z # 

Im A Loser Tabs

(ver. 1) Click to play this song!
Beatles
 Rating:
4/5 (4 votes)

 Im A Loser  lessons Tabs too difficult? Try these video lessons and learn fast
 
                          Am                   D/A                 Fmaj7                  D
      x 0 2 2 1 0          x 0 0 2 3 2          x x 3 2 1 0          x x 0 2 3 2

           G                  Fadd9                 Em                    F
      3 2 0 0 0 3          x x 3 2 1 3          0 2 2 0 0 0          x x 3 2 1 1



Gtr I (E A D G B E) - 'George Harrison - Electric Guitar'
Gtr II (E A D G B E) - 'John Lennon - Acoustic Guitar'


 Intro
  Freely Q=156
             Am         D/A
 4/4
  Gtr II (Ac. Gtr.)
  W          W          W
             |          |
             /          /

  Gtr I (El. Gtr.)
  W          W          W
|----------|----------|------|
|----------|----------|------|
|----------|----------|------|
|----------|----------|------|
|----------|----------|------|
|----------|----------|------|


                      In Tempo Q=167(8=s8)
  Am         D/A         Am             Fmaj7 D
  W          W           Q  Q  E E Q    Q  Q  E E Q
  |          |           |  |  | | |    |  |  | | |
  /          /           /  /  / / /    /  /  / / /

  W          W           W              W
|----------|----------||--------------|--------------||
|----------|----------||--------------|--------------||
|----------|----------||--------------|--------------||
|----------|----------||--------------|--------------||
|----------|----------||--------------|--------------||
|----------|----------||--------------|--------------||


   1st, 3rd & 5th Verses
    $
    G                     D/A
    Q  Q   E  E    E  E   Q  Q   E  E    E  E
    |  |   |  |    |  |   |  |   |  |    |  |
    /  /   /  /    /  /   /  /   /  /    /  /

    Gtr I
    Q  Q  +E.   S +Q      Q  Q  +E.   S +Q
||-----3--(3)-----------|----2--(2)-----------|
||o-------------3-(3)---|-------------3-(3)---|
||----------------------|---------------------|
||----------------------|---------------------|
||o---------------------|---------------------|
||----------------------|---------------------|


  Fadd9                   G
  Q  Q   E  E    E  E      Q   Q  E  E   E E
  |  |   |  |    |  |      |   |  |  |   | |
  /  /   /  /    /  /      /   /  /  /   / /

  Q  Q  +E.   S +E.   S   +Q   Q  E.   S Q
|----3--(3)-------------|--------------------|
|-------------1-(1)-----|------3-------------|
|---------------------0-|-(0)-----0----0-0---|
|-----------------------|--------------------|
|-----------------------|--------------------|
|-----------------------|--------------------|


  G                   D/A
   Q   Q   E  E E E   Q  Q   E  E    E  E
   |   |   |  | | |   |  |   |  |    |  |
   /   /   /  / / /   /  /   /  /    /  /

  +Q   Q  +H          Q  Q  +E.   S +Q
|------3--(3)-------|----2--(2)-----------|
|-------------------|-------------3-(3)---|
|-(0)---------------|---------------------|
|-------------------|---------------------|
|-------------------|---------------------|
|-------------------|---------------------|


  Fadd9                 G
  Q  Q   E  E    E  E   Q  Q  E E E E
  |  |   |  |    |  |   |  |  | | | |
  /  /   /  /    /  /   /  /  / / / /

  Q  Q  +E.   S +Q      Q  Q  E E E E
|----3--(3)-----------|----3----3-3-3---||
|-------------3-(3)---|----3----3-3-3---||
|---------------------|-0-----0---------||
|---------------------|-----------------||
|---------------------|-----------------||
|---------------------|-----------------||


 2nd, 4th & 6th Verses
  G                 D/A             Fadd9           G
  Q  Q   E  E E E   Q  Q  E E E E   Q  Q  E E E E   Q  Q  E E E E
  |  |   |  | | |   |  |  | | | |   |  |  | | | |   |  |  | | | |
  /  /   /  / / /   /  /  / / / /   /  /  / / / /   /  /  / / / /

  Q  Q  +H          W               H     E E E E   H     E Q   E
|----3--(3)-------|---------------|---------------|---------------|
|----3--(3)-------|---------------|---------------|---------------|
|-0---------------|-2-------------|---------2---4-|-------3-3---0-|
|-----------------|---------------|---------------|---------------|
|-----------------|---------------|---------------|---------------|
|-----------------|---------------|---------------|---------------|


  G                D/A             Fadd9           G
  +Q  Q  E E E E   Q  Q  E E E E   Q  Q  E E E E    Q   Q  E E E E
   |  |  | | | |   |  |  | | | |   |  |  | | | |    |   |  | | | |
   /  /  / / / /   /  /  / / / /   /  /  / / / /    /   /  / / / /

   W               W               H     E Q   E   +W
|----------------|---------------|---------3-----|-----------------||
|----------------|---------------|-------------3-|-(3)-------------||
|--0-------------|---------------|-------------0-|-(0)-------------||
|----------------|---------------|---------------|-----------------||
|----------------|---------------|---------------|-----------------||
|----------------|---------------|---------------|-----------------||


 Chorus
  Am              D/A             Am              D/A
  Q  Q  E E E E   Q  Q  E E E E   Q  Q  E E E E   Q  Q  E E E E
  |  |  | | | |   |  |  | | | |   |  |  | | | |   |  |  | | | |
  /  /  / / / /   /  /  / / / /   /  /  / / / /   /  /  / / / /

  Q  Q  E E E E   Q  Q  E E E E   Q  Q  E E E E   Q  Q  E E E E
|-0--0--0-0-0-0-|-2--2--2-2-2-2-|-0--0--0-0-0-0-|-2--2--2-2-2-2-|
|-1--1--1-1-1-1-|-3--3--3-3-3-3-|-1--1--1-1-1-1-|-3--3--3-3-3-3-|
|-2--2--2-2-2-2-|-2--2--2-2-2-2-|-2--2--2-2-2-2-|-2--2--2-2-2-2-|
|-2--2--2-2-2-2-|-0--0--0-0-0-0-|-2--2--2-2-2-2-|-0--0--0-0-0-0-|
|-0--0--0-0-0-0-|-0--0--0-0-0-0-|-0--0--0-0-0-0-|-0--0--0-0-0-0-|
|---------------|---------------|---------------|---------------|


  G               Em              Am              F     D/A
  Q  Q  E E E E   Q  Q  E E E E   Q  Q  E E E E   Q  Q  E E E E
  |  |  | | | |   |  |  | | | |   |  |  | | | |   |  |  | | | |
  /  /  / / / /   /  /  / / / /   /  /  / / / /   /  /  / / / /

  Q  Q  E E E E   Q  Q  E E E E   Q  Q  E E E E   Q  Q  E E E E
|-3--3--3-3-3-3-|-0--0--0-0-0-0-|-0--0--0-0-0-0-|-1--1--2-2-2-2--||
|-0--0--0-0-0-0-|-0--0--0-0-0-0-|-1--1--1-1-1-1-|-1--1--3-3-3-3-o||
|-0--0--0-0-0-0-|-0--0--0-0-0-0-|-2--2--2-2-2-2-|-2--2--2-2-2-2--||
|-0--0--0-0-0-0-|-2--2--2-2-2-2-|-2--2--2-2-2-2-|-3--3--0-0-0-0--||
|-2--2--2-2-2-2-|-2--2--2-2-2-2-|-0--0--0-0-0-0-|-------0-0-0-0-o||
|-3--3--3-3-3-3-|-0--0--0-0-0-0-|---------------|----------------||


 Harmonica Solo
  G               D/A                 Fadd9               G
  Q  Q  E E E E   Q   Q    E  E E E   Q   Q    E  E E E   Q   Q   E E E E
  |  |  | | | |   |   |    |  | | |   |   |    |  | | |   |   |   | | | |
  /  /  / / / /   /   /    /  / / /   /   /    /  / / /   /   /   / / / /

  W               Q.    E +H          Q.    E +H          Q.    E Q   E E
|---------------|-2-----------------|-------3-(3)-------|-----------------|
|---------------|-------3-(3)-------|-------1-(1)-------|---------0---0-3-|
|-0-------------|-------2-(2)-------|-------------------|-0-----2---------|
|---------------|-------------------|-3-----------------|-----------------|
|---------------|-------------------|-------------------|-----------------|
|---------------|-------------------|-------------------|-----------------|


  G               D/A             Fadd9           G
  Q  Q  E E E E   Q  Q  E E E E   Q  Q  E E E E   Q  Q  E E E E
  |  |  | | | |   |  |  | | | |   |  |  | | | |   |  |  | | | |
  /  /  / / / /   /  /  / / / /   /  /  / / / /   /  /  / / / /

  W               W               H     E E Q     Q  Q  Q   Q
|---------------|---------------|---------------|---------------||
|---------------|-3-------------|---------1-----|---------------||
|-0-------------|---------------|---------2-----|-0-------------||
|---------------|---------------|---------------|---------------||
|---------------|---------------|---------------|---------------||
|---------------|---------------|---------------|----2--3---4---||


 Guitar Solo & Outro
  Am               D/A                Am              D/A
  Q  Q  E E  E E   Q  Q    E  E E E   Q  Q  E E E E   Q  Q    E  E E E
  |  |  | |  | |   |  |    |  | | |   |  |  | | | |   |  |    |  | | |
  /  /  / /  / /   /  /    /  / / /   /  /  / / / /   /  /    /  / / /

  Q  Q  E Q.       Q  E E +E  E E E   Q  Q  E E Q     Q  E E +E  E E E
|----5-----------|-7----------7-----|----5----------|-7----------7-----|
|---------5------|------7-(7)-------|---------5-----|------7-(7)-------|
|-------5--------|--------------7h9-|---------------|--------------7h9-|
|----------------|----7-------------|-------7---7---|----7-------------|
|-0--------------|------------------|-0-------------|------------------|
|----------------|------------------|---------------|------------------|


                                                                        D.S.
  G                 Em                  Am                F       D
  Q  Q  E  E  E E   Q   Q    E  E E E   Q  Q   E  E E E   Q   Q    E  E E E
  |  |  |  |  | |   |   |    |  | | |   |  |   |  | | |   |   |    |  | | |
  /  /  /  /  / /   /   /    /  / / /   /  /   /  / / /   /   /    /  / / /

  Q  Q  E +E  Q     Q.    E +E  E Q     Q  Q  +E  E Q     Q.    E +Q    Q
|----6--6-(6)-----|-0-----0-(0)-0-----|----8--(8)-5-----|-5-----5-(5)---5----*|
|-----------------|-------3-(3)-3-----|-------------5---|-6-----7-(7)---7----*|
|-0-----------0---|-------------------|-----------------|--------------------*|
|-----------------|-------------------|-----------------|--------------------*|
|-----------------|-------------------|-----------------|--------------------*|
|-----------------|-------------------|-----------------|--------------------*|

            
Submit corrections


        Im A Loser  lessons Hard to play? Try these video lessons and learn fast Im A Loser  lessons
        
↑ Back to top | Tablatures and chords for acoustic guitar and electric guitar, ukulele, drums are parodies/interpretations of the original songs. You may use it for private study, scholarship, research or language learning purposes only