» » »

Beatles - Don't Let Me Down Bass

Artists:  A B C D E F G H I J K L M N O P Q R S T U V W X Y Z # 

Don't Let Me Down Bass

(ver. 3) Click to play this song!
Beatles
 Rating:
4/5 (4 votes)
    Don't Let Me Down lessons Tabs too difficult? Try these video lessons and learn fast
                Don't let me down
The Beatles

Aunque no cuento con los mejores medios, creo que esta tablatura se puede acercar a lo 
hace el bajo en ésta muy buena canción de la época del "Let it be".

DON'T LET ME DOWN.

Intro
                  ...Don't let me down
G|-----------------------------------------|
D|-----------------------------------------|
A|-------7/--------------------------------|
E|-0---------------------------------------|


                    Don't let me down!                  (x2)
G|-------------------------------------------------------|
D|-------4444444-----------------2222222-----2---22------|
A|---2h4---------4p2-2---------2---------2p0---2---------|
E|-2-------------------4-4-4-0---------------------------|


Nobody ever loved me like

she does...
G|-------------------------------------------------------|
D|-------------------------------------------------------|
A|-------4/9-9\4---4/9-9\4---2/7-2-6-7-------------------|
E|-----2---------2---------0-----------------------------|

And if somebody loved me like

she do me...
G|-------------------------------------------------------|
D|-------------------------------------------------------|
A|-------4/9-9\4----4/9-9\4----2/7-2-6-7-77--------------|
E|-----2----------2----------0---------------------------|


Don't let me down!...                                                 (x2)
G|--------------------------------------------------------------------|
D|--------------------4444444-----------------2222222-----2---22------|
A|----------------2h4---------4p2-2---------2---------2p0---2---------|
E|--------------2-------------------4-4-4-0---------------------------|

I'm in love from the
first time.                             Don't you..
G|------9---8-------9---6-------9-----------9-------9-------9----|
D|----------------------------------9-----------6----------------|
A|7-7----------------------------------------------------9-------|
E|---------------------------------------------------------------|
                                                                  (x2)
G|-------------------2-----------1-------------------------------|
D|--------4---1----------4-----------2--------4---1---2-----1----|
A|2------------------------------------------------------4-------|
E|---------------------------------------------------------------|

I'ts a love that had no past.
G|-------------1---2-2-2-2-2-1-----------------------------------|
D|-2---2---2-4-----------------4----2----------------------------|
A|---------------------------------------------------------------|
E|---------------------------------------------------------------|


Don't let me
down!...
G|--------------------------------------------------------------------|
D|----------4444444-----------------2222222-----2---22----------------|
A|------2h4---------4p2-2---------2---------2p0---2-------------------|
E|----2-------------------4-4-4-0-------------------------------------|

Don't let me
down!...
G|--------------------------------------------------------------------|
D|-----------2h4-2h4-2h4-2h4-2h4-2h4-2h4-2h4-2----1-2---2222222-----2-|
A|------2h4-----------------------------------22-----2---------2h0----|
E|--------------------------------------------------------------------|

And from the first time that she really

done me...
G|-------------------------------------------------------|
D|-------------------------------------------------------|
A|-------4/9-9\4----4/9-9\4----2/7-2-6-7-----------------|
E|-----2----------2----------0---------------------------|

I guess nobody ever really

done me...
G|-------------------------------------------------------|
D|-------------------------------------------------------|
A|-------4/9-9\4----4/9-9\4----2/7-2-6-7-77--------------|
E|-----2----------2----------0---------------------------|


Don't let me down!...
G|--------------------------------------------------------------------|
D|--------------------4444444------------------2222222-----2-------22-|
A|----------------2h4---------4p2------------2---------2p0-------2----|
E|--------------2-----------------22-4-4-4-0-----------------2h4------|

yeeeeeeeeah!
G|--------------------------------------------------------------------|
D|-----------------4444444-----------2-----1-----2222222-----2--------|
A|-------------2h4---------4p2---2h4---2-2-----2---------2p0----------|
E|--2--4--4--2-----------------2-------------0------------------------|


uuuuuuuuH!!
G|--------------------------------------------------------------------|
D|---------------2h4-2h4-2h4-2h4-----2h4-2-------22-------------------|
A|-----------2h4-----------------2h4-----------2----------------------|
E|-------2-2-------------------------------2-4------------------------|

G|-------------------------------------------|
D|--------22-2-0--------2-0------------------|
A|------2--------2----2-----2-4--------------|
E|--2-4------------0------------2------------|

                              Can you dig it,
G|-------------------------------------------|
D|------2h4-2h4-2h4-2h4-2h4-2h4------2h4-2---|
A|--2h4-------------------------2h4----------|
E|-------------------------------------------|

Don't let me down!
G|--------------------------------|
D|-2-0------------2---------------|
A|-----2-4-2--2h4-----------------|
E|--2-4-------------2-2-2---------|
            
Submit corrections

↑ Back to top | Tablatures and chords for acoustic guitar and electric guitar, ukulele, drums are parodies/interpretations of the original songs. You may use it for private study, scholarship, research or language learning purposes only