» » »

Band Of Horses - Our Swords Tabs

Artists:  A B C D E F G H I J K L M N O P Q R S T U V W X Y Z # 

Our Swords Tabs

(ver. 1) Click to play this song!
Band Of Horses
 Rating:
4/5 (4 votes)


 Our Swords lessons Tabs too difficult? Try these video lessons and learn fast
 
                
[INTRO / VERSE 1]:
    B               G#m
E|-2-2-2-2--4-4-4-4--|
B|-2-2-2-2--4-4-4-4--|
G|-4-4-4-4--4-4-4-4--|     Repeat x 12
D|-4-4-4-4--6-6-6-6--|
A|-2-2-2-2--6-6-6-6--|
E|----------4-4-4-4--|

[VERSE 2]:
    B         G#m
E|--------------------|
B|--------------------|
G|-----4--------------|     Repeat x 12
D|---4---4------6-----|
A|-2----------6---6---|
E|----------4---------|


[CHORUS]:
   Eb         F#            Eb     E             B
E|--6----------9-------------6-----7-------------2---|
B|--6----------9-------------6-----7-------------2---|
G|--8----------11------------8-----9-------------4---|
D|--8----------11------------8-----9-------------4---|
A|--6----------9-------------6-----7-------------2---|
E|---------------------------------------------------|

 Count on - us all - fallin' on - our swords - tonight


REPEAT THESE PARTS FOR THE REMAINING VERSES AND CHORUSES

Thats it. The original version is played mainly on bass, but it still sounds really nice 
a guitar. Any questions/ comments/ problems, e-mail me on the address above.

Thanks :)
            
Submit corrections



        Our Swords lessons Hard to play? Try these video lessons and learn fast Our Swords lessons
        
↑ Back to top | Tablatures and chords for acoustic guitar and electric guitar, ukulele, drums are parodies/interpretations of the original songs. You may use it for private study, scholarship, research or language learning purposes only