» » »

Bamboo - Umagang Kay Ganda Bass

Artists:  A B C D E F G H I J K L M N O P Q R S T U V W X Y Z # 

Umagang Kay Ganda Bass

(ver. 1) Click to play this song!
Bamboo
 Rating:
4/5 (4 votes)


 Umagang Kay Ganda lessons Tabs too difficult? Try these video lessons and learn fast
 
                Tuning: Standard

intro:

G|---------------------------------------------------------|
D|---7----------5-----------------------------------5------|
A|-----------------------------------------------------5---|
E|----------------------5----------------------------------|
	Halika na,        Pumikit limutin ang problema

G|---------------------------------------------------------|
D|---7----------------7------------------------------------|
A|------------6-7-8-------------------------5--------------|
E|--------------------------------3------------------------|
	Hihintayin . . .

verse 1:

G|------------------------------------|
D|---------------------7------5-------|
A|------------------------------------|
E|---5-------3------------------------|
    Magpahinga, panaginip ang ikaliligaya

G|------------------------------------|
D|----------------------7-hold--------|
A|------------------------------------|
E|---5-------3------------------------|
         Darating din ang umaga

Chorus:

G|------------------------------------|
D|------------------------------------|
A|---2--------------4-----------------|
E|------------------------------------|

    Basta’t tayo’y magkasama

G|------------------------------------|
D|------------------------------------|
A|---5--------------------------------|
E|---------------------------5--------|

    Laging mayroong umagang kay ganda

G|------------------------------------|
D|------------------------------------|
A|---2--------------4-----------------|
E|------------------------------------|

    Pagsikat ng araw May dalang liwanag

G|------------------------------------|
D|------------------------------------|
A|---4-(x8)-------------------5-------|
E|--------------------3---------------|

    Sa ating pangarap,        ooh

    Haharapin natin


Intro to verse 2:

G|------------------------------------|
D|------------------------------------|
A|------------------------------------|
E|----5-----3-----5------6------------|


Verse 2:

G|------------------------------------|
D|------------------------------------|
A|------------------4h5-4-------------|
E|---5--------5---5-------------------|

       Simple lang

G|------------------------------------|
D|------------------------------------|
A|-----------------2-2-2h3--2---------|
E|--3--3-------3----------------------|

	 Kasama ka naman


G|------------------------------------|
D|---------------------------7--------|
A|-----------------4-4h5-5------------|
E|---5---5------5---------------------|

       Kung ayaw nila,
G|------------------------------------|
D|------------------------------------|
A|-----------------2-2-2h3—-2---------|
E|--3—-3-------3----------------------|

     Sa akin okay lang

Repeat verse 2(x2)




G|------------------------------------|
D|------------------------------------|
A|------------------------------------|
E|----5----5-5---5-5------------------|

       Gumising na

G|------------------------------------|
D|------------------------------------|
A|------------------------------------|
E|----3----3-3---3-3------------------|

      (gumising na)

Repeat (3x)


Then

G|------------------------------------|
D|------------------------------------|
A|-----------------12hold-------------|
E|-------5hold---5s12-----------------|


While doing solo 1

G|------------------------------------|
D|------------------------------------|
A|---2-2---4-4-----5-5-----7-9--------|
E|------------------------------5-5---|

G|------------------------------------|
D|------------------------------------|
A|---2-2---4-4-----4hold------17s5----|
E|------------------------------------|


Then repeat chorus


Guitar and bass solo

G|--------------------------6h7p6--------------|
D|------------------7—-7s9--------9---7--------|
A|---5-4---------5-----------------------7-----|
E|--------5---3-----------------------------10-|

Then

G|------------------5-----6-7-9-----12---------|
D|-------------7----------------7--------------|
A|---------------------------------------------|
E|---5----3------------------------------------|

G|------------------------------------|
D|------------------------------------|
A|------------------------------------|
E|----5------3------------------------|
	Haharapin natin

Entrance to solo 3

G|------------------------------------|
D|------------------------------------|
A|------------------------------------|
E|---5---5---5--5-5-------------------|


G|------------------------------------|
D|------------------------------------|
A|------------------------------------|
E|---3---3---3--3-3-------------------|


Solo 3

G|------------------------------------|
D|------------------------------------|
A|------------------------------------|
E|---5---5---5--5-5-------------------|


G|------------------------------------|
D|------------------------------------|
A|------------------------------------|
E|---3---3---3--3-3-------------------|

Repeat(x3)

Then

G|----------------------------------------------|
D|----------------------------------------------|
A|-------------------5-5s9-8-7---3-3-5----------|
E|---5---5---5--5-5-----------------------------|


G|----------------------------------------------|
D|----------------------------------------------|
A|----------------------------------------------|
E|---5---5---5--5-5----3----3---3--3-3----------|

G|----------------------------------------------|
D|----------------------------------------------|
A|----------------------------------------------|
E|---5---5---5--5-5----3--5--7--5--8------------|

G|----------------------------------------------------------|
D|----------------------------------------------------------|
A|----------------------------------------------------------|
E|---5---5---5--5-5----3----3---3--3-3----------------------|
G|----------------------------------------------------------|
D|----------------------------------------------------------|
A|-----------------12-12-12-12-12-12------bass slide--------|
E|---5-5-5-5-5-5-5s12---------------------------------------|


Repeat chorus

			-end-


Sbayan nio s cd pra mas ma-practice nio timing…

Oi jopet gmawa k nman ng tab nde ung basa ka ng basa ng tab!!sean bsahin m n lng 2ng 
len gwin m n rn ung tab

s gtara n2!..
Sa banda nmin!”My name is earl”!..ung kbnda qng itlog at kabayo!
mabuhay ang kamikaze!haha..
            
Submit corrections



        Umagang Kay Ganda lessons Hard to play? Try these video lessons and learn fast Umagang Kay Ganda lessons
        
↑ Back to top | Tablatures and chords for acoustic guitar and electric guitar, ukulele, drums are parodies/interpretations of the original songs. You may use it for private study, scholarship, research or language learning purposes only