» » »

Bakkushan - Alles War Aus Gold Tabs

Artists:  A B C D E F G H I J K L M N O P Q R S T U V W X Y Z # 

Alles War Aus Gold Tabs

(ver. 1) Click to play this song!
Bakkushan
 Rating:
4/5 (4 votes)


 Alles War Aus Gold lessons Tabs too difficult? Try these video lessons and learn fast
 
                                             Bakkushan – Alles war aus Gold

Tuning: Drop D 

Intro / Verse

e|-------------------------------------------------|
B|-------------------------------------------------|
G|-77777777-7777-7777------------------------------|
D|-xxxxxxxx-xxxx-xxxx------------------------------|
A|-55555555-5555-5555------------------------------|
D|-00000000-4444-5555------------------------------|
Intro part 2

e|-2222222200005555-------------------------|
B|-3333333333333333-------------------------|
G|-2222222222222222-------------------------|
D|-0000000000000000-------------------------|
A|-0000000000000000-------------------------|
D|-0000000000000000-------------------------|

Chorus
e|------------------------------------------------------------------------|
B|------------------------------------------------------------------------|
G|-7777-6666-4444-2222---7777-6666-44444444---7777-6666-4444-2222--2-2-7--|
D|-0000-0000-0000-0000---0000-0000-00000000---0000-0000-0000-0000--0-0-0--|
A|-0000-0000-0000-0000---0000-0000-00000000---0000-0000-0000-0000--0-0-0--|
D|-9999-7777-5555-0000---9999-7777-55555555---9999-7777-5555-0000--2-4-5--|

Bridge

e|--------------------------------------|
B|--------------------------------------|
G|-7-6-4----2-2-4-----------------------|
D|-7-0-0----0-0-0-----------------------|
A|-5-0-0-x3-0-0-0-----------------------|
D|-0-7-5----2-4-5-----------------------|
            
Submit corrections



        Alles War Aus Gold lessons Hard to play? Try these video lessons and learn fast Alles War Aus Gold lessons
        
↑ Back to top | Tablatures and chords for acoustic guitar and electric guitar, ukulele, drums are parodies/interpretations of the original songs. You may use it for private study, scholarship, research or language learning purposes only